  0
SECTION
  2
HEADER
  9
$ACADVER
  1
AC1015
  9
$ACADMAINTVER
 70
     6
  9
$DWGCODEPAGE
  3
ANSI_932
  9
$INSBASE
 10
0.0
 20
0.0
 30
0.0
  9
$EXTMIN
 10
18929.09321263628
 20
-11602.2158702201
 30
0.0
  9
$EXTMAX
 10
19217.51580074531
 20
-11284.27210441867
 30
0.0
  9
$LIMMIN
 10
0.0
 20
0.0
  9
$LIMMAX
 10
840.0
 20
594.0
  9
$ORTHOMODE
 70
     1
  9
$REGENMODE
 70
     1
  9
$FILLMODE
 70
     1
  9
$QTEXTMODE
 70
     0
  9
$MIRRTEXT
 70
     1
  9
$LTSCALE
 40
7.0
  9
$ATTMODE
 70
     0
  9
$TEXTSIZE
 40
6.0
  9
$TRACEWID
 40
1.0
  9
$TEXTSTYLE
  7
STANDARD
  9
$CLAYER
  8
寸法線
  9
$CELTYPE
  6
BYLAYER
  9
$CECOLOR
 62
   256
  9
$CELTSCALE
 40
1.0
  9
$DISPSILH
 70
     0
  9
$DIMSCALE
 40
1.0
  9
$DIMASZ
 40
10.0
  9
$DIMEXO
 40
3.0
  9
$DIMDLI
 40
7.149999999999999
  9
$DIMRND
 40
0.0
  9
$DIMDLE
 40
0.0
  9
$DIMEXE
 40
2.0
  9
$DIMTP
 40
0.0
  9
$DIMTM
 40
0.0
  9
$DIMTXT
 40
18.0
  9
$DIMCEN
 40
0.0
  9
$DIMTSZ
 40
0.0
  9
$DIMTOL
 70
     0
  9
$DIMLIM
 70
     0
  9
$DIMTIH
 70
     0
  9
$DIMTOH
 70
     0
  9
$DIMSE1
 70
     0
  9
$DIMSE2
 70
     0
  9
$DIMTAD
 70
     3
  9
$DIMZIN
 70
     8
  9
$DIMBLK
  1
OPEN
  9
$DIMASO
 70
     1
  9
$DIMSHO
 70
     0
  9
$DIMPOST
  1

  9
$DIMAPOST
  1

  9
$DIMALT
 70
     0
  9
$DIMALTD
 70
     2
  9
$DIMALTF
 40
25.4
  9
$DIMLFAC
 40
1.0
  9
$DIMTOFL
 70
     0
  9
$DIMTVP
 40
0.0
  9
$DIMTIX
 70
     0
  9
$DIMSOXD
 70
     0
  9
$DIMSAH
 70
     0
  9
$DIMBLK1
  1

  9
$DIMBLK2
  1

  9
$DIMSTYLE
  2
STANDARD
  9
$DIMCLRD
 70
     8
  9
$DIMCLRE
 70
     8
  9
$DIMCLRT
 70
     0
  9
$DIMTFAC
 40
1.0
  9
$DIMGAP
 40
4.0
  9
$DIMJUST
 70
     0
  9
$DIMSD1
 70
     0
  9
$DIMSD2
 70
     0
  9
$DIMTOLJ
 70
     1
  9
$DIMTZIN
 70
     0
  9
$DIMALTZ
 70
     0
  9
$DIMALTTZ
 70
     0
  9
$DIMUPT
 70
     1
  9
$DIMDEC
 70
     2
  9
$DIMTDEC
 70
     2
  9
$DIMALTU
 70
     2
  9
$DIMALTTD
 70
     2
  9
$DIMTXSTY
  7
STANDARD
  9
$DIMAUNIT
 70
     0
  9
$DIMADEC
 70
     2
  9
$DIMALTRND
 40
0.0
  9
$DIMAZIN
 70
     2
  9
$DIMDSEP
 70
    46
  9
$DIMATFIT
 70
     3
  9
$DIMFRAC
 70
     0
  9
$DIMLDRBLK
  1
OPEN
  9
$DIMLUNIT
 70
     2
  9
$DIMLWD
 70
    -2
  9
$DIMLWE
 70
    -2
  9
$DIMTMOVE
 70
     0
  9
$LUNITS
 70
     2
  9
$LUPREC
 70
     2
  9
$SKETCHINC
 40
0.1
  9
$FILLETRAD
 40
0.6
  9
$AUNITS
 70
     0
  9
$AUPREC
 70
     2
  9
$MENU
  1
ACAD
  9
$ELEVATION
 40
0.0
  9
$PELEVATION
 40
0.0
  9
$THICKNESS
 40
0.0
  9
$LIMCHECK
 70
     0
  9
$CHAMFERA
 40
0.0
  9
$CHAMFERB
 40
0.0
  9
$CHAMFERC
 40
0.0
  9
$CHAMFERD
 40
0.0
  9
$SKPOLY
 70
     0
  9
$TDCREATE
 40
2449505.922222222
  9
$TDUCREATE
 40
2449505.547222222
  9
$TDUPDATE
 40
2456822.490796366
  9
$TDUUPDATE
 40
2456822.115796366
  9
$TDINDWG
 40
2.3945202894
  9
$TDUSRTIMER
 40
2456822.115659097
  9
$USRTIMER
 70
     1
  9
$ANGBASE
 50
0.0
  9
$ANGDIR
 70
     0
  9
$PDMODE
 70
     3
  9
$PDSIZE
 40
0.0
  9
$PLINEWID
 40
0.0
  9
$SPLFRAME
 70
     0
  9
$SPLINETYPE
 70
     6
  9
$SPLINESEGS
 70
     8
  9
$HANDSEED
  5
690E0
  9
$SURFTAB1
 70
     6
  9
$SURFTAB2
 70
     6
  9
$SURFTYPE
 70
     6
  9
$SURFU
 70
     6
  9
$SURFV
 70
     6
  9
$UCSBASE
  2

  9
$UCSNAME
  2

  9
$UCSORG
 10
0.0
 20
0.0
 30
0.0
  9
$UCSXDIR
 10
1.0
 20
0.0
 30
0.0
  9
$UCSYDIR
 10
0.0
 20
1.0
 30
0.0
  9
$UCSORTHOREF
  2

  9
$UCSORTHOVIEW
 70
     0
  9
$UCSORGTOP
 10
0.0
 20
0.0
 30
0.0
  9
$UCSORGBOTTOM
 10
0.0
 20
0.0
 30
0.0
  9
$UCSORGLEFT
 10
0.0
 20
0.0
 30
0.0
  9
$UCSORGRIGHT
 10
0.0
 20
0.0
 30
0.0
  9
$UCSORGFRONT
 10
0.0
 20
0.0
 30
0.0
  9
$UCSORGBACK
 10
0.0
 20
0.0
 30
0.0
  9
$PUCSBASE
  2

  9
$PUCSNAME
  2

  9
$PUCSORG
 10
0.0
 20
0.0
 30
0.0
  9
$PUCSXDIR
 10
1.0
 20
0.0
 30
0.0
  9
$PUCSYDIR
 10
0.0
 20
1.0
 30
0.0
  9
$PUCSORTHOREF
  2

  9
$PUCSORTHOVIEW
 70
     0
  9
$PUCSORGTOP
 10
0.0
 20
0.0
 30
0.0
  9
$PUCSORGBOTTOM
 10
0.0
 20
0.0
 30
0.0
  9
$PUCSORGLEFT
 10
0.0
 20
0.0
 30
0.0
  9
$PUCSORGRIGHT
 10
0.0
 20
0.0
 30
0.0
  9
$PUCSORGFRONT
 10
0.0
 20
0.0
 30
0.0
  9
$PUCSORGBACK
 10
0.0
 20
0.0
 30
0.0
  9
$USERI1
 70
     0
  9
$USERI2
 70
     0
  9
$USERI3
 70
     0
  9
$USERI4
 70
     0
  9
$USERI5
 70
     0
  9
$USERR1
 40
0.0
  9
$USERR2
 40
0.0
  9
$USERR3
 40
0.0
  9
$USERR4
 40
0.0
  9
$USERR5
 40
0.0
  9
$WORLDVIEW
 70
     0
  9
$SHADEDGE
 70
     3
  9
$SHADEDIF
 70
    70
  9
$TILEMODE
 70
     1
  9
$MAXACTVP
 70
    16
  9
$PINSBASE
 10
0.0
 20
0.0
 30
0.0
  9
$PLIMCHECK
 70
     0
  9
$PEXTMIN
 10
1.000000000000000E+20
 20
1.000000000000000E+20
 30
1.000000000000000E+20
  9
$PEXTMAX
 10
-1.000000000000000E+20
 20
-1.000000000000000E+20
 30
-1.000000000000000E+20
  9
$PLIMMIN
 10
0.0
 20
0.0
  9
$PLIMMAX
 10
0.0
 20
0.0
  9
$UNITMODE
 70
     0
  9
$VISRETAIN
 70
     0
  9
$PLINEGEN
 70
     0
  9
$PSLTSCALE
 70
     0
  9
$TREEDEPTH
 70
  3020
  9
$CMLSTYLE
  2
STANDARD
  9
$CMLJUST
 70
     0
  9
$CMLSCALE
 40
1.0
  9
$PROXYGRAPHICS
 70
     1
  9
$MEASUREMENT
 70
     0
  9
$CELWEIGHT
370
    -1
  9
$ENDCAPS
280
     0
  9
$JOINSTYLE
280
     0
  9
$LWDISPLAY
290
     0
  9
$INSUNITS
 70
     0
  9
$HYPERLINKBASE
  1

  9
$STYLESHEET
  1
spax form.ctb
  9
$XEDIT
290
     1
  9
$CEPSNTYPE
380
     0
  9
$PSTYLEMODE
290
     1
  9
$FINGERPRINTGUID
  2
{C1CFCF3E-DF91-11D3-B30C-0060B0FA8DFC}
  9
$VERSIONGUID
  2
{95B63956-701D-4DC5-B7EE-6C6F807641D1}
  9
$EXTNAMES
290
     1
  9
$PSVPSCALE
 40
0.0
  9
$OLESTARTUP
290
     0
  0
ENDSEC
  0
SECTION
  2
CLASSES
  0
CLASS
  1
LWPOLYLINE
  2
AcDbPolyline
  3
ObjectDBX Classes
 90
        0
280
     0
281
     1
  0
CLASS
  1
ACDBDICTIONARYWDFLT
  2
AcDbDictionaryWithDefault
  3
ObjectDBX Classes
 90
        0
280
     0
281
     0
  0
CLASS
  1
ACDBPLACEHOLDER
  2
AcDbPlaceHolder
  3
ObjectDBX Classes
 90
        0
280
     0
281
     0
  0
CLASS
  1
LAYOUT
  2
AcDbLayout
  3
ObjectDBX Classes
 90
        0
280
     0
281
     0
  0
CLASS
  1
DICTIONARYVAR
  2
AcDbDictionaryVar
  3
ObjectDBX Classes
 90
        0
280
     0
281
     0
  0
CLASS
  1
LONG_TRANSACTION
  2
AcDbLongTransaction
  3
ObjectDBX Classes
 90
        0
280
     0
281
     0
  0
CLASS
  1
LWPOLYLINE
  2
AcDbPolyline
  3
ObjectDBX Classes
 90
        0
280
     0
281
     1
  0
CLASS
  1
HATCH
  2
AcDbHatch
  3
ObjectDBX Classes
 90
        0
280
     0
281
     1
  0
CLASS
  1
XRECORD
  2
AcDbXrecord
  3
ObjectDBX Classes
 90
        0
280
     0
281
     0
  0
CLASS
  1
SORTENTSTABLE
  2
AcDbSortentsTable
  3
ObjectDBX Classes
 90
        0
280
     0
281
     0
  0
CLASS
  1
MATERIAL
  2
AcDbMaterial
  3
ObjectDBX Classes
 90
     1153
280
     0
281
     0
  0
CLASS
  1
VISUALSTYLE
  2
AcDbVisualStyle
  3
ObjectDBX Classes
 90
     4095
280
     0
281
     0
  0
CLASS
  1
TABLESTYLE
  2
AcDbTableStyle
  3
ObjectDBX Classes
 90
     4095
280
     0
281
     0
  0
CLASS
  1
SCALE
  2
AcDbScale
  3
ObjectDBX Classes
 90
     1153
280
     0
281
     0
  0
CLASS
  1
MLEADERSTYLE
  2
AcDbMLeaderStyle
  3
ACDB_MLEADERSTYLE_CLASS
 90
     4095
280
     0
281
     0
  0
CLASS
  1
CELLSTYLEMAP
  2
AcDbCellStyleMap
  3
ObjectDBX Classes
 90
     1152
280
     0
281
     0
  0
CLASS
  1
RASTERVARIABLES
  2
AcDbRasterVariables
  3
ISM
 90
        0
280
     0
281
     0
  0
CLASS
  1
SUN
  2
AcDbSun
  3
SCENEOE
 90
     1153
280
     0
281
     0
  0
ENDSEC
  0
SECTION
  2
TABLES
  0
TABLE
  2
VPORT
  5
8
330
0
100
AcDbSymbolTable
 70
     1
  0
VPORT
  5
68587
330
8
100
AcDbSymbolTableRecord
100
AcDbViewportTableRecord
  2
*Active
 70
     0
 10
0.0
 20
0.0
 11
1.0
 21
1.0
 12
19073.30450669079
 22
-11443.24398731939
 13
0.0
 23
0.0
 14
1.0
 24
1.0
 15
20.0
 25
20.0
 16
0.0
 26
0.0
 36
1.0
 17
0.0
 27
0.0
 37
0.0
 40
324.3026411174645
 41
2.027568922305764
 42
50.0
 43
0.0
 44
0.0
 50
0.0
 51
0.0
 71
    16
 72
  2000
 73
     1
 74
     0
 75
     0
 76
     0
 77
     0
 78
     1
281
     0
 65
     1
110
0.0
120
0.0
130
0.0
111
1.0
121
0.0
131
0.0
112
0.0
122
1.0
132
0.0
 79
     0
146
0.0
  0
ENDTAB
  0
TABLE
  2
LTYPE
  5
5
330
0
100
AcDbSymbolTable
 70
     5
  0
LTYPE
  5
12
330
5
100
AcDbSymbolTableRecord
100
AcDbLinetypeTableRecord
  2
BYBLOCK
 70
     0
  3

 72
    65
 73
     0
 40
0.0
  0
LTYPE
  5
13
330
5
100
AcDbSymbolTableRecord
100
AcDbLinetypeTableRecord
  2
BYLAYER
 70
     0
  3

 72
    65
 73
     0
 40
0.0
  0
LTYPE
  5
14
330
5
100
AcDbSymbolTableRecord
100
AcDbLinetypeTableRecord
  2
CONTINUOUS
 70
     0
  3
Solid line
 72
    65
 73
     0
 40
0.0
  0
LTYPE
  5
3D
330
5
100
AcDbSymbolTableRecord
100
AcDbLinetypeTableRecord
  2
PHANTOM
 70
     0
  3
_____ _ _ _____ _ _ _____ _ _ _____ _ _ ____
 72
    65
 73
     6
 40
2.5
 49
1.25
 74
     0
 49
-0.25
 74
     0
 49
0.25
 74
     0
 49
-0.25
 74
     0
 49
0.25
 74
     0
 49
-0.25
 74
     0
  0
LTYPE
  5
40D2
330
5
100
AcDbSymbolTableRecord
100
AcDbLinetypeTableRecord
  2
CENTER
 70
     0
  3
____ _ ____ _ ____ _ ____ _ ____ _ ____ _ ____ 
 72
    65
 73
     4
 40
2.0
 49
1.25
 74
     0
 49
-0.25
 74
     0
 49
0.25
 74
     0
 49
-0.25
 74
     0
  0
LTYPE
  5
A244
330
5
100
AcDbSymbolTableRecord
100
AcDbLinetypeTableRecord
  2
HIDDEN
 70
     0
  3
_ _ _ _ _ _ _ _ _ _ _ _ _ _ _ _ _ _ _ _ _ _ _
 72
    65
 73
     2
 40
0.375
 49
0.25
 74
     0
 49
-0.125
 74
     0
  0
ENDTAB
  0
TABLE
  2
LAYER
  5
2
102
{ACAD_XDICTIONARY
360
63E00
102
}
330
0
100
AcDbSymbolTable
 70
    14
  0
LAYER
  5
F
102
{ACAD_XDICTIONARY
360
66201
102
}
330
2
100
AcDbSymbolTableRecord
100
AcDbLayerTableRecord
  2
0
 70
     0
 62
     7
  6
CONTINUOUS
370
    -3
390
40CA
  0
LAYER
  5
4C
102
{ACAD_XDICTIONARY
360
66209
102
}
330
2
100
AcDbSymbolTableRecord
100
AcDbLayerTableRecord
  2
寸法線
 70
     0
 62
     7
  6
CONTINUOUS
370
    -3
390
40CA
  0
LAYER
  5
4D
102
{ACAD_XDICTIONARY
360
6620B
102
}
330
2
100
AcDbSymbolTableRecord
100
AcDbLayerTableRecord
  2
姿図
 70
     0
 62
     8
  6
CONTINUOUS
370
    -3
390
40CA
  0
LAYER
  5
40D4
102
{ACAD_XDICTIONARY
360
6620F
102
}
330
2
100
AcDbSymbolTableRecord
100
AcDbLayerTableRecord
  2
文字
 70
     0
 62
     7
  6
CONTINUOUS
370
    -3
390
40CA
  0
LAYER
  5
63DFF
102
{ACAD_XDICTIONARY
360
66219
102
}
330
2
100
AcDbSymbolTableRecord
100
AcDbLayerTableRecord
  2
C-SUNPO
 70
     0
 62
     7
  6
CONTINUOUS
370
    -3
390
40CA
  0
ENDTAB
  0
TABLE
  2
STYLE
  5
3
330
0
100
AcDbSymbolTable
 70
     1
  0
STYLE
  5
10
330
3
100
AcDbSymbolTableRecord
100
AcDbTextStyleTableRecord
  2
STANDARD
 70
     0
 40
0.0
 41
1.0
 50
0.0
 71
     0
 42
6.0
  3
MONOTXT
  4
BIGFONT
  0
ENDTAB
  0
TABLE
  2
VIEW
  5
6
330
0
100
AcDbSymbolTable
 70
     1
  0
VIEW
  5
41
330
6
100
AcDbSymbolTableRecord
100
AcDbViewTableRecord
  2
CUT1
 70
     0
 40
612.7795527156796
 10
420.0000000000169
 20
306.3897763578398
 41
840.0000000000338
 11
0.0
 21
0.0
 31
1.0
 12
0.0
 22
0.0
 32
0.0
 42
50.0
 43
0.0
 44
0.0
 50
0.0
 71
     0
281
     0
 72
     0
  0
ENDTAB
  0
TABLE
  2
UCS
  5
7
330
0
100
AcDbSymbolTable
 70
     0
  0
ENDTAB
  0
TABLE
  2
APPID
  5
9
330
0
100
AcDbSymbolTable
 70
     6
  0
APPID
  5
11
330
9
100
AcDbSymbolTableRecord
100
AcDbRegAppTableRecord
  2
ACAD
 70
     0
  0
APPID
  5
65358
330
9
100
AcDbSymbolTableRecord
100
AcDbRegAppTableRecord
  2
ACAD_MLEADERVER
 70
     0
  0
APPID
  5
661FA
330
9
100
AcDbSymbolTableRecord
100
AcDbRegAppTableRecord
  2
ACAD_EXEMPT_FROM_CAD_STANDARDS
 70
     0
  0
APPID
  5
66F37
330
9
100
AcDbSymbolTableRecord
100
AcDbRegAppTableRecord
  2
ACAD_PSEXT
 70
     0
  0
APPID
  5
69077
330
9
100
AcDbSymbolTableRecord
100
AcDbRegAppTableRecord
  2
ACAD_DSTYLE_DIMJAG
 70
     0
  0
APPID
  5
69078
330
9
100
AcDbSymbolTableRecord
100
AcDbRegAppTableRecord
  2
ACAD_DSTYLE_DIMTALN
 70
     0
  0
ENDTAB
  0
TABLE
  2
DIMSTYLE
  5
A
330
0
100
AcDbSymbolTable
 70
     5
100
AcDbDimStyleTable
  0
DIMSTYLE
105
1B3A
330
A
100
AcDbSymbolTableRecord
100
AcDbDimStyleTableRecord
  2
STANDARD
 70
     0
 41
10.0
 42
3.0
 43
7.149999999999999
 44
2.0
 73
     0
 74
     0
 77
     3
 78
     8
 79
     2
140
18.0
141
0.0
147
4.0
176
     8
177
     8
178
     0
179
     2
271
     2
272
     2
288
     1
340
10
341
49C3
342
49C3
  0
DIMSTYLE
105
A246
330
A
100
AcDbSymbolTableRecord
100
AcDbDimStyleTableRecord
  2
STANDERD
 70
     0
 40
0.0
 41
4.0
 42
1.5
 43
3.75
 44
1.25
 73
     0
 74
     0
 77
     3
 78
     8
140
5.0
141
0.0
147
2.5
171
     0
173
     1
178
     0
288
     1
340
10
341
49C3
343
49C3
344
49C3
  0
DIMSTYLE
105
60281
330
A
100
AcDbSymbolTableRecord
100
AcDbDimStyleTableRecord
  2
STANDARD-5
 70
     0
 41
7.5
 42
7.5
 43
1.9
 44
5.0
 73
     0
 74
     0
 77
     1
 78
     8
 79
     2
140
12.5
141
0.0
147
3.0
171
     0
173
     1
176
     8
177
     8
271
     2
178
   256
179
     2
271
     2
272
     2
274
     0
340
10
341
49C3
343
49C3
344
49C3
  0
ENDTAB
  0
TABLE
  2
BLOCK_RECORD
  5
1
330
0
100
AcDbSymbolTable
 70
   191
  0
BLOCK_RECORD
  5
18
102
{ACAD_XDICTIONARY
360
9FD5
102
}
330
1
100
AcDbSymbolTableRecord
100
AcDbBlockTableRecord
  2
*MODEL_SPACE
340
40CD
  0
BLOCK_RECORD
  5
15
330
1
100
AcDbSymbolTableRecord
100
AcDbBlockTableRecord
  2
*PAPER_SPACE
340
40CE
  0
BLOCK_RECORD
  5
49C3
330
1
100
AcDbSymbolTableRecord
100
AcDbBlockTableRecord
  2
_OPEN
340
0
102
{BLKREFS
331
5FE0A
331
5FE0B
331
5FE13
331
5FE14
331
5FE1C
331
5FE1D
331
5FE27
331
5FE28
331
5FE30
331
5FE31
331
5FE39
331
5FE3A
331
5FE42
331
5FE43
331
5FE4D
331
5FE4E
331
5FE5F
331
5FE60
331
5FE7C
331
5FE7D
331
5FE85
331
5FE86
331
5FE8E
331
5FE8F
331
5FE97
331
5FE98
331
5FEA0
331
5FEA1
331
6229F
331
622A0
331
622AA
331
622AB
331
622B3
331
622B4
331
622C8
331
622C9
331
6268D
331
6268E
331
6308C
331
6308D
331
63095
331
63096
331
6309E
331
6309F
331
630A7
331
630A8
331
630B0
331
630B1
331
630B9
331
630BA
331
630C2
331
630C3
331
630CB
331
630CC
331
630D4
331
630D5
331
630DD
331
630DE
331
630E8
331
630E9
331
630F1
331
630F2
331
630FA
331
630FB
331
63103
331
63104
331
6310E
331
6310F
331
63117
331
63118
331
63120
331
63121
331
6312B
331
6312C
331
63134
331
63135
331
63B46
331
63B47
331
63B4F
331
63B50
331
63B58
331
63B59
331
63B61
331
63B62
331
63B6A
331
63B6B
331
63B73
331
63B74
331
63B7C
331
63B7D
331
63B85
331
63B86
331
63B8E
331
63B8F
331
63B97
331
63B98
331
63BA1
331
63BA2
331
63BAE
331
63BAF
331
63BB7
331
63BB8
331
63BC0
331
63BC1
331
63BC9
331
63BCA
331
63BD2
331
63BD3
331
63BDB
331
63BDC
331
63BE4
331
63BE5
331
63BED
331
63BEE
331
63CD3
331
63CD4
331
66280
331
66281
331
66289
331
6628A
331
66292
331
66293
331
6629B
331
6629C
331
662A4
331
662A5
331
662AD
331
662AE
331
662B6
331
662B7
331
662C1
331
662C2
331
662CA
331
662CB
331
662D3
331
662D4
331
662DC
331
662DD
331
662E5
331
662E6
331
662EE
331
662EF
331
662F9
331
662FA
331
66302
331
66303
331
6630B
331
6630C
331
66314
331
66315
331
6631D
331
6631E
331
66328
331
66329
331
66331
331
66332
331
6633A
331
6633B
331
66345
331
66346
331
6634E
331
6634F
331
66357
331
66358
331
66360
331
66361
331
66369
331
6636A
331
66372
331
66373
331
6637D
331
6637E
331
66386
331
66387
331
6638F
331
66390
331
66398
331
66399
331
663A1
331
663A2
331
663AA
331
663AB
331
663B3
331
663B4
331
663BC
331
663BD
331
663C5
331
663C6
331
663D0
331
663D1
331
663D9
331
663DA
331
663E2
331
663E3
331
663ED
331
663EE
331
663F8
331
663F9
331
66401
331
66402
331
66E3C
331
66E3D
331
66E45
331
66E46
331
66E4E
331
66E4F
331
66E57
331
66E58
331
66E62
331
66E63
331
66E6B
331
66E6C
331
66E74
331
66E75
331
66E7F
331
66E80
331
66E88
331
66E89
331
66E91
331
66E92
331
66E9C
331
66E9D
331
66EA5
331
66EA6
331
66EAE
331
66EAF
331
66EB7
331
66EB8
331
66EC0
331
66EC1
331
66ECB
331
66ECC
331
66ED4
331
66ED5
331
66EDD
331
66EDE
331
66EE6
331
66EE7
331
66EEF
331
66EF0
331
66EF8
331
66EF9
331
67965
331
67966
331
6796E
331
6796F
331
67977
331
67978
331
67980
331
67981
331
67989
331
6798A
331
67992
331
67993
331
6799D
331
6799E
331
679A6
331
679A7
331
679AF
331
679B0
331
679B8
331
679B9
331
679C1
331
679C2
331
679CA
331
679CB
331
679D3
331
679D4
331
679DC
331
679DD
331
679E5
331
679E6
331
679F0
331
679F1
331
679F9
331
679FA
331
67A02
331
67A03
331
67A0D
331
67A0E
331
67A18
331
67A19
331
67A21
331
67A22
331
68446
331
68447
331
6844F
331
68450
331
68458
331
68459
331
68461
331
68462
331
6846C
331
6846D
331
68475
331
68476
331
6847E
331
6847F
331
68489
331
6848A
331
68494
331
68495
331
6849D
331
6849E
331
684A6
331
684A7
331
684AF
331
684B0
331
684B8
331
684B9
331
684C1
331
684C2
331
684CA
331
684CB
331
684D5
331
684D6
331
684DE
331
684DF
331
684E7
331
684E8
331
684F0
331
684F1
331
684F9
331
684FA
331
68502
331
68503
331
68FA7
331
68FA8
331
68FB0
331
68FB1
331
68FB9
331
68FBA
331
68FC4
331
68FC5
331
68FCD
331
68FCE
331
68FD6
331
68FD7
331
68FDF
331
68FE0
331
68FE8
331
68FE9
331
68FF1
331
68FF2
331
68FFA
331
68FFB
331
69003
331
69004
331
6900C
331
6900D
331
69015
331
69016
331
6901E
331
6901F
331
69029
331
6902A
331
69034
331
69035
331
6903D
331
6903E
331
69046
331
69047
331
6904F
331
69050
331
69058
331
69059
331
69063
331
69064
102
}
  0
ENDTAB
  0
ENDSEC
  0
SECTION
  2
BLOCKS
  0
BLOCK
  5
52
330
18
100
AcDbEntity
  8
0
100
AcDbBlockBegin
  2
*MODEL_SPACE
 70
     0
 10
0.0
 20
0.0
 30
0.0
  3
*MODEL_SPACE
  1
*MODEL_SPACE
  0
ENDBLK
  5
53
330
18
100
AcDbEntity
  8
0
100
AcDbBlockEnd
  0
BLOCK
  5
50
330
15
100
AcDbEntity
 67
     1
  8
0
100
AcDbBlockBegin
  2
*PAPER_SPACE
 70
     0
 10
0.0
 20
0.0
 30
0.0
  3
*PAPER_SPACE
  1
*PAPER_SPACE
  0
ENDBLK
  5
51
330
15
100
AcDbEntity
 67
     1
  8
0
100
AcDbBlockEnd
  0
BLOCK
  5
49C7
330
49C3
100
AcDbEntity
  8
0
100
AcDbBlockBegin
  2
_OPEN
 70
     0
 10
0.0
 20
0.0
 30
0.0
  3
_OPEN
  1
_OPEN
  0
LINE
  5
49C4
330
49C3
100
AcDbEntity
  8
0
  6
ByBlock
 62
     0
100
AcDbLine
 10
-1.0
 20
0.1666666666666667
 30
0.0
 11
0.0
 21
0.0
 31
0.0
  0
LINE
  5
49C5
330
49C3
100
AcDbEntity
  8
0
  6
ByBlock
 62
     0
100
AcDbLine
 10
0.0
 20
0.0
 30
0.0
 11
-1.0
 21
-0.1666666666666667
 31
0.0
  0
LINE
  5
49C6
330
49C3
100
AcDbEntity
  8
0
  6
ByBlock
 62
     0
100
AcDbLine
 10
0.0
 20
0.0
 30
0.0
 11
-1.0
 21
0.0
 31
0.0
  0
ENDBLK
  5
49C8
330
49C3
100
AcDbEntity
  8
0
100
AcDbBlockEnd
  0
ENDSEC
  0
SECTION
  2
ENTITIES
  0
TEXT
  5
68741
330
18
100
AcDbEntity
  8
文字
100
AcDbText
 10
18929.09321263628
 20
-11602.2158702201
 30
0.0
 40
29.997
  1
SX-LB146E
100
AcDbText
  0
LINE
  5
687AA
330
18
100
AcDbEntity
  8
姿図
100
AcDbLine
 10
19013.50827641545
 20
-11435.10786404662
 30
0.0
 11
19039.29437842366
 21
-11441.19712908297
 31
0.0
  0
LINE
  5
687AB
330
18
100
AcDbEntity
  8
姿図
100
AcDbLine
 10
19013.50827641545
 20
-11435.10786404662
 30
0.0
 11
19092.26199003461
 21
-11495.48723316999
 31
0.0
  0
LINE
  5
687AC
330
18
100
AcDbEntity
  8
姿図
100
AcDbLine
 10
19112.25473721919
 20
-11335.8783258482
 30
0.0
 11
18947.14978769771
 21
-11365.21024341082
 31
0.0
  0
LINE
  5
687AD
330
18
100
AcDbEntity
  8
姿図
100
AcDbLine
 10
19112.25473721919
 20
-11367.84874357929
 30
0.0
 11
18947.14978769771
 21
-11397.18066114191
 31
0.0
  0
LINE
  5
687AE
330
18
100
AcDbEntity
  8
姿図
100
AcDbLine
 10
19112.25473721919
 20
-11364.65170180618
 30
0.0
 11
18947.14978769771
 21
-11393.9836193688
 31
0.0
  0
LINE
  5
687AF
330
18
100
AcDbEntity
  8
姿図
100
AcDbLine
 10
19112.25473721919
 20
-11362.97706087741
 30
0.0
 11
18947.14978769771
 21
-11392.30897844003
 31
0.0
  0
LINE
  5
687B0
330
18
100
AcDbEntity
  8
姿図
100
AcDbLine
 10
19112.25473721919
 20
-11359.7800191043
 30
0.0
 11
18947.14978769771
 21
-11389.11193666692
 31
0.0
  0
LINE
  5
687B1
330
18
100
AcDbEntity
  8
姿図
100
AcDbLine
 10
19112.25473721919
 20
-11358.10537817553
 30
0.0
 11
18947.14978769771
 21
-11387.43729573815
 31
0.0
  0
LINE
  5
687B2
330
18
100
AcDbEntity
  8
姿図
100
AcDbLine
 10
19112.25473721919
 20
-11354.90833640242
 30
0.0
 11
18947.14978769771
 21
-11384.24025396504
 31
0.0
  0
LINE
  5
687B3
330
18
100
AcDbEntity
  8
姿図
100
AcDbLine
 10
19112.25473721919
 20
-11353.23369547365
 30
0.0
 11
18947.14978769771
 21
-11382.56561303627
 31
0.0
  0
LINE
  5
687B4
330
18
100
AcDbEntity
  8
姿図
100
AcDbLine
 10
19112.25473721919
 20
-11350.03665370054
 30
0.0
 11
18947.14978769771
 21
-11379.36857126316
 31
0.0
  0
LINE
  5
687B5
330
18
100
AcDbEntity
  8
姿図
100
AcDbLine
 10
19112.25473721919
 20
-11352.13687134116
 30
0.0
 11
18948.96855392888
 21
-11381.14567381054
 31
0.0
  0
LINE
  5
687B6
330
18
100
AcDbEntity
  8
姿図
100
AcDbLine
 10
19112.25473721919
 20
-11357.00855404304
 30
0.0
 11
18948.96855392888
 21
-11386.01735651243
 31
0.0
  0
LINE
  5
687B7
330
18
100
AcDbEntity
  8
姿図
100
AcDbLine
 10
19112.25473721919
 20
-11361.88023674492
 30
0.0
 11
18948.96855392888
 21
-11390.88903921431
 31
0.0
  0
LINE
  5
687B8
330
18
100
AcDbEntity
  8
姿図
100
AcDbLine
 10
19112.25473721919
 20
-11366.7519194468
 30
0.0
 11
18948.96855392888
 21
-11395.76072191619
 31
0.0
  0
LINE
  5
687B9
330
18
100
AcDbEntity
  8
姿図
100
AcDbLine
 10
19112.25473721919
 20
-11348.36201277177
 30
0.0
 11
18947.14978769771
 21
-11377.69393033439
 31
0.0
  0
LINE
  5
687BA
330
18
100
AcDbEntity
  8
姿図
100
AcDbLine
 10
19112.25473721919
 20
-11345.82467803121
 30
0.0
 11
18947.14978769771
 21
-11375.15659559382
 31
0.0
  0
LINE
  5
687BB
330
18
100
AcDbEntity
  8
姿図
100
AcDbLine
 10
19112.25473721919
 20
-11347.03763569533
 30
0.0
 11
18948.60356404423
 21
-11376.11128087984
 31
0.0
  0
LINE
  5
687BC
330
18
100
AcDbEntity
  8
姿図
100
AcDbLine
 10
19112.25473721919
 20
-11343.79481023875
 30
0.0
 11
18947.14978769771
 21
-11373.12672780137
 31
0.0
  0
LINE
  5
687BD
330
18
100
AcDbEntity
  8
姿図
100
AcDbLine
 10
19112.25473721919
 20
-11337.90819364065
 30
0.0
 11
18947.14978769771
 21
-11367.24011120327
 31
0.0
  0
LINE
  5
687BE
330
18
100
AcDbEntity
  8
姿図
100
AcDbLine
 10
19112.25473721919
 20
-11339.12115130477
 30
0.0
 11
18948.60356404423
 21
-11368.19479648928
 31
0.0
  0
LINE
  5
687BF
330
18
100
AcDbEntity
  8
姿図
100
AcDbLine
 10
19112.25473721919
 20
-11284.27210441867
 30
0.0
 11
18952.66943256776
 21
-11312.62342286071
 31
0.0
  0
LINE
  5
687C0
330
18
100
AcDbEntity
  8
姿図
100
AcDbLine
 10
19099.36902138659
 20
-11420.6289031012
 30
0.0
 11
19013.50827641545
 21
-11435.10786404662
 31
0.0
  0
LINE
  5
687C1
330
18
100
AcDbEntity
  8
姿図
100
AcDbLine
 10
19100.89389792343
 20
-11410.70162912776
 30
0.0
 11
19013.50827641545
 21
-11427.05618083512
 31
0.0
  0
LINE
  5
687C2
330
18
100
AcDbEntity
  8
姿図
100
AcDbLine
 10
19112.25473721919
 20
-11386.59407001381
 30
0.0
 11
18947.14978769771
 21
-11415.92598757643
 31
0.0
  0
LINE
  5
687C3
330
18
100
AcDbEntity
  8
姿図
100
AcDbLine
 10
19112.25473721919
 20
-11383.83395244484
 30
0.0
 11
18947.14978769771
 21
-11413.16587000746
 31
0.0
  0
LINE
  5
687C4
330
18
100
AcDbEntity
  8
姿図
100
AcDbLine
 10
19112.25473721919
 20
-11377.94733584673
 30
0.0
 11
18947.14978769771
 21
-11407.27925340935
 31
0.0
  0
LINE
  5
687C5
330
18
100
AcDbEntity
  8
姿図
100
AcDbLine
 10
19112.25473721919
 20
-11377.94733584673
 30
0.0
 11
18947.14978769771
 21
-11407.27925340935
 31
0.0
  0
LINE
  5
687C6
330
18
100
AcDbEntity
  8
姿図
100
AcDbLine
 10
19112.25473721919
 20
-11378.86676120455
 30
0.0
 11
18948.25175430143
 21
-11408.0029075703
 31
0.0
  0
LINE
  5
687C7
330
18
100
AcDbEntity
  8
姿図
100
AcDbLine
 10
19112.25473721919
 20
-11376.17120152834
 30
0.0
 11
18947.14978769771
 21
-11405.50311909096
 31
0.0
  0
LINE
  5
687C8
330
18
100
AcDbEntity
  8
姿図
100
AcDbLine
 10
19112.25473721919
 20
-11374.39506720995
 30
0.0
 11
18947.14978769771
 21
-11403.72698477256
 31
0.0
  0
LINE
  5
687C9
330
18
100
AcDbEntity
  8
姿図
100
AcDbLine
 10
19112.25473721919
 20
-11372.72042628117
 30
0.0
 11
18947.14978769771
 21
-11402.05234384379
 31
0.0
  0
LINE
  5
687CA
330
18
100
AcDbEntity
  8
姿図
100
AcDbLine
 10
19112.25473721919
 20
-11369.52338450806
 30
0.0
 11
18947.14978769771
 21
-11398.85530207068
 31
0.0
  0
LINE
  5
687CB
330
18
100
AcDbEntity
  8
姿図
100
AcDbLine
 10
19112.25473721919
 20
-11371.62360214869
 30
0.0
 11
18948.96855392888
 21
-11400.63240461807
 31
0.0
  0
LINE
  5
687CC
330
18
100
AcDbEntity
  8
姿図
100
AcDbLine
 10
19052.41085122383
 20
-11499.1778251392
 30
0.0
 11
18947.14978769771
 21
-11415.92598757643
 31
0.0
  0
LINE
  5
687CD
330
18
100
AcDbEntity
  8
姿図
100
AcDbLine
 10
18952.66943256776
 20
-11364.22964429024
 30
0.0
 11
18952.66943256776
 21
-11312.62342286071
 31
0.0
  0
LINE
  5
687CE
330
18
100
AcDbEntity
  8
姿図
100
AcDbLine
 10
18947.14978769771
 20
-11379.36857126316
 30
0.0
 11
18948.96855392888
 21
-11381.14567381054
 31
0.0
  0
LINE
  5
687CF
330
18
100
AcDbEntity
  8
姿図
100
AcDbLine
 10
18947.14978769771
 20
-11375.15659559382
 30
0.0
 11
18948.60356404423
 21
-11376.11128087984
 31
0.0
  0
LINE
  5
687D0
330
18
100
AcDbEntity
  8
姿図
100
AcDbLine
 10
18948.96855392888
 20
-11381.14567381054
 30
0.0
 11
18947.14978769771
 21
-11382.56561303627
 31
0.0
  0
LINE
  5
687D1
330
18
100
AcDbEntity
  8
姿図
100
AcDbLine
 10
18947.14978769771
 20
-11367.24011120327
 30
0.0
 11
18948.60356404423
 21
-11368.19479648928
 31
0.0
  0
LINE
  5
687D2
330
18
100
AcDbEntity
  8
姿図
100
AcDbLine
 10
18947.14978769771
 20
-11375.15659559382
 30
0.0
 11
18947.14978769771
 21
-11373.12672780137
 31
0.0
  0
LINE
  5
687D3
330
18
100
AcDbEntity
  8
姿図
100
AcDbLine
 10
18947.14978769771
 20
-11379.36857126316
 30
0.0
 11
18947.14978769771
 21
-11377.69393033439
 31
0.0
  0
LINE
  5
687D4
330
18
100
AcDbEntity
  8
姿図
100
AcDbLine
 10
18947.14978769771
 20
-11367.24011120327
 30
0.0
 11
18947.14978769771
 21
-11365.21024341082
 31
0.0
  0
LINE
  5
687D5
330
18
100
AcDbEntity
  8
姿図
100
AcDbLine
 10
18949.3188734207
 20
-11368.06771734524
 30
0.0
 11
18949.3188734207
 21
-11372.74137627922
 31
0.0
  0
LINE
  5
687D6
330
18
100
AcDbEntity
  8
姿図
100
AcDbLine
 10
18948.60356404423
 20
-11376.11128087984
 30
0.0
 11
18948.60356404423
 21
-11377.43565795628
 31
0.0
  0
LINE
  5
687D7
330
18
100
AcDbEntity
  8
姿図
100
AcDbLine
 10
18947.14978769771
 20
-11384.24025396504
 30
0.0
 11
18948.96855392888
 21
-11386.01735651243
 31
0.0
  0
LINE
  5
687D8
330
18
100
AcDbEntity
  8
姿図
100
AcDbLine
 10
18948.96855392888
 20
-11386.01735651243
 30
0.0
 11
18947.14978769771
 21
-11387.43729573815
 31
0.0
  0
LINE
  5
687D9
330
18
100
AcDbEntity
  8
姿図
100
AcDbLine
 10
18947.14978769771
 20
-11393.9836193688
 30
0.0
 11
18948.96855392888
 21
-11395.76072191619
 31
0.0
  0
LINE
  5
687DA
330
18
100
AcDbEntity
  8
姿図
100
AcDbLine
 10
18947.14978769771
 20
-11389.11193666692
 30
0.0
 11
18948.96855392888
 21
-11390.88903921431
 31
0.0
  0
LINE
  5
687DB
330
18
100
AcDbEntity
  8
姿図
100
AcDbLine
 10
18948.96855392888
 20
-11390.88903921431
 30
0.0
 11
18947.14978769771
 21
-11392.30897844003
 31
0.0
  0
LINE
  5
687DC
330
18
100
AcDbEntity
  8
姿図
100
AcDbLine
 10
18948.96855392888
 20
-11395.76072191619
 30
0.0
 11
18947.14978769771
 21
-11397.18066114191
 31
0.0
  0
LINE
  5
687DD
330
18
100
AcDbEntity
  8
姿図
100
AcDbLine
 10
18947.14978769771
 20
-11393.9836193688
 30
0.0
 11
18947.14978769771
 21
-11392.30897844003
 31
0.0
  0
LINE
  5
687DE
330
18
100
AcDbEntity
  8
姿図
100
AcDbLine
 10
18947.14978769771
 20
-11389.11193666692
 30
0.0
 11
18947.14978769771
 21
-11387.43729573815
 31
0.0
  0
LINE
  5
687DF
330
18
100
AcDbEntity
  8
姿図
100
AcDbLine
 10
18947.14978769771
 20
-11384.24025396504
 30
0.0
 11
18947.14978769771
 21
-11382.56561303627
 31
0.0
  0
LINE
  5
687E0
330
18
100
AcDbEntity
  8
姿図
100
AcDbLine
 10
18947.14978769771
 20
-11403.72698477256
 30
0.0
 11
18948.60356404423
 21
-11404.68167005858
 31
0.0
  0
LINE
  5
687E1
330
18
100
AcDbEntity
  8
姿図
100
AcDbLine
 10
18947.14978769771
 20
-11405.50311909096
 30
0.0
 11
18947.14978769771
 21
-11407.27925340935
 31
0.0
  0
LINE
  5
687E2
330
18
100
AcDbEntity
  8
姿図
100
AcDbLine
 10
18947.14978769771
 20
-11407.27925340935
 30
0.0
 11
18948.25175430143
 21
-11408.0029075703
 31
0.0
  0
LINE
  5
687E3
330
18
100
AcDbEntity
  8
姿図
100
AcDbLine
 10
18948.25175430143
 20
-11408.0029075703
 30
0.0
 11
18948.25175430143
 21
-11412.97009881059
 31
0.0
  0
LINE
  5
687E4
330
18
100
AcDbEntity
  8
姿図
100
AcDbLine
 10
18948.60356404423
 20
-11404.68167005858
 30
0.0
 11
18948.60356404423
 21
-11405.24484671285
 31
0.0
  0
LINE
  5
687E5
330
18
100
AcDbEntity
  8
姿図
100
AcDbLine
 10
18947.14978769771
 20
-11398.85530207068
 30
0.0
 11
18948.96855392888
 21
-11400.63240461807
 31
0.0
  0
LINE
  5
687E6
330
18
100
AcDbEntity
  8
姿図
100
AcDbLine
 10
18948.96855392888
 20
-11400.63240461807
 30
0.0
 11
18947.14978769771
 21
-11402.05234384379
 31
0.0
  0
LINE
  5
687E7
330
18
100
AcDbEntity
  8
姿図
100
AcDbLine
 10
18947.14978769771
 20
-11403.72698477256
 30
0.0
 11
18947.14978769771
 21
-11402.05234384379
 31
0.0
  0
LINE
  5
687E8
330
18
100
AcDbEntity
  8
姿図
100
AcDbLine
 10
18947.14978769771
 20
-11398.85530207068
 30
0.0
 11
18947.14978769771
 21
-11397.18066114191
 31
0.0
  0
LINE
  5
687E9
330
18
100
AcDbEntity
  8
姿図
100
AcDbLine
 10
18947.14978769771
 20
-11415.92598757643
 30
0.0
 11
18947.14978769771
 21
-11413.16587000746
 31
0.0
  0
LINE
  5
687EA
330
18
100
AcDbEntity
  8
姿図
100
AcDbLine
 10
19013.50827641545
 20
-11427.05618083512
 30
0.0
 11
19013.50827641545
 21
-11435.10786404662
 31
0.0
  0
LINE
  5
687EB
330
18
100
AcDbEntity
  8
姿図
100
AcDbLine
 10
19013.50827641545
 20
-11427.05618083512
 30
0.0
 11
19013.50827641545
 21
-11435.10786404662
 31
0.0
  0
LINE
  5
687EC
330
18
100
AcDbEntity
  8
姿図
100
AcDbLine
 10
19145.8739136709
 20
-11346.14786724569
 30
0.0
 11
19184.70737253813
 21
-11379.15313532611
 31
0.0
  0
LINE
  5
687ED
330
18
100
AcDbEntity
  8
姿図
100
AcDbLine
 10
19145.87391367091
 20
-11318.09520865675
 30
0.0
 11
19184.70737253813
 21
-11351.10047673717
 31
0.0
  0
LINE
  5
687EE
330
18
100
AcDbEntity
  8
姿図
100
AcDbLine
 10
19162.06838305173
 20
-11485.22275324436
 30
0.0
 11
19177.70942191933
 21
-11482.92286175113
 31
0.0
  0
LINE
  5
687EF
330
18
100
AcDbEntity
  8
姿図
100
AcDbLine
 10
19177.70942191933
 20
-11482.92286175113
 30
0.0
 11
19099.36902138659
 21
-11420.6289031012
 31
0.0
  0
LINE
  5
687F0
330
18
100
AcDbEntity
  8
姿図
100
AcDbLine
 10
19177.70942191933
 20
-11475.69912185555
 30
0.0
 11
19100.89389792343
 21
-11410.70162912776
 31
0.0
  0
LINE
  5
687F1
330
18
100
AcDbEntity
  8
姿図
100
AcDbLine
 10
19217.51580074531
 20
-11469.84590757658
 30
0.0
 11
19112.25473721919
 21
-11386.59407001381
 31
0.0
  0
LINE
  5
687F2
330
18
100
AcDbEntity
  8
姿図
100
AcDbLine
 10
19217.51580074531
 20
-11467.08579000761
 30
0.0
 11
19112.25473721919
 21
-11383.83395244484
 31
0.0
  0
LINE
  5
687F3
330
18
100
AcDbEntity
  8
姿図
100
AcDbLine
 10
19217.51580074531
 20
-11419.13016341096
 30
0.0
 11
19112.25473721919
 21
-11335.8783258482
 31
0.0
  0
LINE
  5
687F4
330
18
100
AcDbEntity
  8
姿図
100
AcDbLine
 10
19217.51580074531
 20
-11421.16003120342
 30
0.0
 11
19112.25473721919
 21
-11337.90819364065
 31
0.0
  0
LINE
  5
687F5
330
18
100
AcDbEntity
  8
姿図
100
AcDbLine
 10
19216.45925719777
 20
-11421.16003120342
 30
0.0
 11
19112.25473721919
 21
-11339.12115130477
 31
0.0
  0
LINE
  5
687F6
330
18
100
AcDbEntity
  8
姿図
100
AcDbLine
 10
19217.51580074531
 20
-11427.04664780152
 30
0.0
 11
19112.25473721919
 21
-11343.79481023875
 31
0.0
  0
LINE
  5
687F7
330
18
100
AcDbEntity
  8
姿図
100
AcDbLine
 10
19217.51580074531
 20
-11429.07651559397
 30
0.0
 11
19112.06996517336
 21
-11345.85750393032
 31
0.0
  0
LINE
  5
687F8
330
18
100
AcDbEntity
  8
姿図
100
AcDbLine
 10
19216.21787297813
 20
-11429.21761384094
 30
0.0
 11
19112.25473721919
 21
-11347.03763569533
 31
0.0
  0
LINE
  5
687F9
330
18
100
AcDbEntity
  8
姿図
100
AcDbLine
 10
19217.51580074531
 20
-11431.61385033453
 30
0.0
 11
19112.25473721919
 21
-11348.36201277177
 31
0.0
  0
LINE
  5
687FA
330
18
100
AcDbEntity
  8
姿図
100
AcDbLine
 10
19217.51580074531
 20
-11433.28849126331
 30
0.0
 11
19112.25473721919
 21
-11350.03665370054
 31
0.0
  0
LINE
  5
687FB
330
18
100
AcDbEntity
  8
姿図
100
AcDbLine
 10
19217.51580074531
 20
-11436.48553303642
 30
0.0
 11
19112.25473721919
 21
-11352.13687134116
 31
0.0
  0
LINE
  5
687FC
330
18
100
AcDbEntity
  8
姿図
100
AcDbLine
 10
19217.51580074531
 20
-11438.16017396519
 30
0.0
 11
19112.25473721919
 21
-11353.23369547365
 31
0.0
  0
LINE
  5
687FD
330
18
100
AcDbEntity
  8
姿図
100
AcDbLine
 10
19217.51580074531
 20
-11441.3572157383
 30
0.0
 11
19112.25473721919
 21
-11357.00855404304
 31
0.0
  0
LINE
  5
687FE
330
18
100
AcDbEntity
  8
姿図
100
AcDbLine
 10
19217.51580074531
 20
-11443.03185666707
 30
0.0
 11
19112.25473721919
 21
-11358.10537817553
 31
0.0
  0
LINE
  5
687FF
330
18
100
AcDbEntity
  8
姿図
100
AcDbLine
 10
19217.51580074531
 20
-11446.22889844018
 30
0.0
 11
19112.25473721919
 21
-11361.88023674492
 31
0.0
  0
LINE
  5
68800
330
18
100
AcDbEntity
  8
姿図
100
AcDbLine
 10
19217.51580074531
 20
-11447.90353936895
 30
0.0
 11
19112.25473721919
 21
-11362.97706087741
 31
0.0
  0
LINE
  5
68801
330
18
100
AcDbEntity
  8
姿図
100
AcDbLine
 10
19217.51580074531
 20
-11451.10058114206
 30
0.0
 11
19112.25473721919
 21
-11366.7519194468
 31
0.0
  0
LINE
  5
68802
330
18
100
AcDbEntity
  8
姿図
100
AcDbLine
 10
19217.51580074531
 20
-11452.77522207083
 30
0.0
 11
19112.25473721919
 21
-11367.84874357929
 31
0.0
  0
LINE
  5
68803
330
18
100
AcDbEntity
  8
姿図
100
AcDbLine
 10
19217.51580074531
 20
-11455.97226384394
 30
0.0
 11
19112.25473721919
 21
-11371.62360214869
 31
0.0
  0
LINE
  5
68804
330
18
100
AcDbEntity
  8
姿図
100
AcDbLine
 10
19217.51580074531
 20
-11457.64690477271
 30
0.0
 11
19112.25473721919
 21
-11372.72042628117
 31
0.0
  0
LINE
  5
68805
330
18
100
AcDbEntity
  8
姿図
100
AcDbLine
 10
19217.51580074531
 20
-11459.42303909111
 30
0.0
 11
19112.25473721919
 21
-11376.17120152834
 31
0.0
  0
LINE
  5
68806
330
18
100
AcDbEntity
  8
姿図
100
AcDbLine
 10
19217.51580074531
 20
-11461.1991734095
 30
0.0
 11
19112.25473721919
 21
-11377.94733584673
 31
0.0
  0
LINE
  5
68807
330
18
100
AcDbEntity
  8
姿図
100
AcDbLine
 10
19216.33813077001
 20
-11461.1991734095
 30
0.0
 11
19112.25473721919
 21
-11378.86676120455
 31
0.0
  0
LINE
  5
68808
330
18
100
AcDbEntity
  8
姿図
100
AcDbLine
 10
19217.51580074531
 20
-11459.32154570148
 30
0.0
 11
19112.25473721919
 21
-11374.39506720995
 31
0.0
  0
LINE
  5
68809
330
18
100
AcDbEntity
  8
姿図
100
AcDbLine
 10
19106.64832863448
 20
-11486.14809556684
 30
0.0
 11
19051.27106299103
 21
-11439.29059549776
 31
0.0
  0
LINE
  5
6880A
330
18
100
AcDbEntity
  8
姿図
100
AcDbLine
 10
19106.22831208975
 20
-11493.43359558504
 30
0.0
 11
19092.26199003461
 21
-11495.48723316999
 31
0.0
  0
LINE
  5
6880B
330
18
100
AcDbEntity
  8
姿図
100
AcDbLine
 10
19096.69709246375
 20
-11432.05935797576
 30
0.0
 11
19162.06838305173
 21
-11485.22275324436
 31
0.0
  0
LINE
  5
6880C
330
18
100
AcDbEntity
  8
姿図
100
AcDbLine
 10
19039.29437842366
 20
-11441.19712908297
 30
0.0
 11
19106.22831208975
 21
-11493.43359558504
 31
0.0
  0
LINE
  5
6880D
330
18
100
AcDbEntity
  8
姿図
100
AcDbLine
 10
19039.88065515495
 20
-11441.05067490829
 30
0.0
 11
19106.64832863448
 21
-11493.37183546243
 31
0.0
  0
LINE
  5
6880E
330
18
100
AcDbEntity
  8
姿図
100
AcDbLine
 10
19099.36902138659
 20
-11420.6289031012
 30
0.0
 11
19096.69709246375
 21
-11432.05935797576
 31
0.0
  0
LINE
  5
6880F
330
18
100
AcDbEntity
  8
姿図
100
AcDbLine
 10
19067.60269324089
 20
-11463.28945591464
 30
0.0
 11
19067.69179477617
 21
-11462.84432182578
 31
0.0
  0
LINE
  5
68810
330
18
100
AcDbEntity
  8
姿図
100
AcDbLine
 10
19088.67302635009
 20
-11492.73562498392
 30
0.0
 11
19052.41085122383
 21
-11499.1778251392
 31
0.0
  0
LINE
  5
68811
330
18
100
AcDbEntity
  8
姿図
100
AcDbLine
 10
19100.89389792343
 20
-11410.70162912776
 30
0.0
 11
19099.36902138659
 21
-11420.6289031012
 31
0.0
  0
LINE
  5
68812
330
18
100
AcDbEntity
  8
姿図
100
AcDbLine
 10
19100.89389792343
 20
-11410.70162912776
 30
0.0
 11
19099.36902138659
 21
-11420.6289031012
 31
0.0
  0
LINE
  5
68813
330
18
100
AcDbEntity
  8
姿図
100
AcDbLine
 10
19096.69709246375
 20
-11432.05935797576
 30
0.0
 11
19039.29437842366
 21
-11441.19712908297
 31
0.0
  0
LINE
  5
68814
330
18
100
AcDbEntity
  8
姿図
100
AcDbLine
 10
19112.25473721919
 20
-11284.27210441867
 30
0.0
 11
19145.87391367091
 21
-11312.84565835383
 31
0.0
  0
LINE
  5
68815
330
18
100
AcDbEntity
  8
姿図
100
AcDbLine
 10
19145.8739136709
 20
-11346.14786724569
 30
0.0
 11
19145.87391367091
 21
-11312.84565835383
 31
0.0
  0
LINE
  5
68816
330
18
100
AcDbEntity
  8
姿図
100
AcDbLine
 10
19112.25473721919
 20
-11386.59407001381
 30
0.0
 11
19112.25473721919
 21
-11284.27210441867
 31
0.0
  0
LINE
  5
68817
330
18
100
AcDbEntity
  8
姿図
100
AcDbLine
 10
19106.64832863448
 20
-11493.37183546243
 30
0.0
 11
19106.22831208975
 21
-11493.43359558504
 31
0.0
  0
LINE
  5
68818
330
18
100
AcDbEntity
  8
姿図
100
AcDbLine
 10
19106.64832863448
 20
-11486.14809556684
 30
0.0
 11
19106.64832863448
 21
-11493.37183546243
 31
0.0
  0
LINE
  5
68819
330
18
100
AcDbEntity
  8
姿図
100
AcDbLine
 10
19184.70737253813
 20
-11345.85092643424
 30
0.0
 11
19210.64128501425
 21
-11367.8926337304
 31
0.0
  0
LINE
  5
6881A
330
18
100
AcDbEntity
  8
姿図
100
AcDbLine
 10
19184.70737253813
 20
-11379.15313532611
 30
0.0
 11
19184.70737253813
 21
-11345.85092643424
 31
0.0
  0
LINE
  5
6881B
330
18
100
AcDbEntity
  8
姿図
100
AcDbLine
 10
19184.70737253813
 20
-11345.85092643424
 30
0.0
 11
19179.46953516168
 21
-11346.64874279911
 31
0.0
  0
LINE
  5
6881C
330
18
100
AcDbEntity
  8
姿図
100
AcDbLine
 10
19210.64128501425
 20
-11367.8926337304
 30
0.0
 11
19210.64128501425
 21
-11413.76312152449
 31
0.0
  0
LINE
  5
6881D
330
18
100
AcDbEntity
  8
姿図
100
AcDbLine
 10
19217.51580074531
 20
-11429.07651559397
 30
0.0
 11
19216.21787297813
 21
-11429.21761384094
 31
0.0
  0
LINE
  5
6881E
330
18
100
AcDbEntity
  8
姿図
100
AcDbLine
 10
19216.21787297813
 20
-11429.21761384094
 30
0.0
 11
19216.21787297813
 21
-11430.60053783885
 31
0.0
  0
LINE
  5
6881F
330
18
100
AcDbEntity
  8
姿図
100
AcDbLine
 10
19217.51580074531
 20
-11433.28849126331
 30
0.0
 11
19217.51580074531
 21
-11431.61385033453
 31
0.0
  0
LINE
  5
68820
330
18
100
AcDbEntity
  8
姿図
100
AcDbLine
 10
19217.51580074531
 20
-11429.07651559397
 30
0.0
 11
19217.51580074531
 21
-11427.04664780152
 31
0.0
  0
LINE
  5
68821
330
18
100
AcDbEntity
  8
姿図
100
AcDbLine
 10
19217.51580074531
 20
-11421.16003120342
 30
0.0
 11
19216.45925719777
 21
-11421.16003120342
 31
0.0
  0
LINE
  5
68822
330
18
100
AcDbEntity
  8
姿図
100
AcDbLine
 10
19217.51580074531
 20
-11421.16003120342
 30
0.0
 11
19217.51580074531
 21
-11419.13016341096
 31
0.0
  0
LINE
  5
68823
330
18
100
AcDbEntity
  8
姿図
100
AcDbLine
 10
19215.18605235863
 20
-11420.1660202841
 30
0.0
 11
19215.18605235863
 21
-11425.22777681986
 31
0.0
  0
LINE
  5
68824
330
18
100
AcDbEntity
  8
姿図
100
AcDbLine
 10
19217.51580074531
 20
-11433.28849126331
 30
0.0
 11
19215.69703451414
 21
-11435.06559381069
 31
0.0
  0
LINE
  5
68825
330
18
100
AcDbEntity
  8
姿図
100
AcDbLine
 10
19217.51580074531
 20
-11452.77522207083
 30
0.0
 11
19217.51580074531
 21
-11451.10058114206
 31
0.0
  0
LINE
  5
68826
330
18
100
AcDbEntity
  8
姿図
100
AcDbLine
 10
19217.51580074531
 20
-11447.90353936895
 30
0.0
 11
19217.51580074531
 21
-11446.22889844018
 31
0.0
  0
LINE
  5
68827
330
18
100
AcDbEntity
  8
姿図
100
AcDbLine
 10
19217.51580074531
 20
-11443.03185666707
 30
0.0
 11
19217.51580074531
 21
-11441.3572157383
 31
0.0
  0
LINE
  5
68828
330
18
100
AcDbEntity
  8
姿図
100
AcDbLine
 10
19217.51580074531
 20
-11461.1991734095
 30
0.0
 11
19217.51580074531
 21
-11459.42303909111
 31
0.0
  0
LINE
  5
68829
330
18
100
AcDbEntity
  8
姿図
100
AcDbLine
 10
19217.51580074531
 20
-11461.1991734095
 30
0.0
 11
19216.33813077001
 21
-11461.1991734095
 31
0.0
  0
LINE
  5
6882A
330
18
100
AcDbEntity
  8
姿図
100
AcDbLine
 10
19217.51580074531
 20
-11469.84590757658
 30
0.0
 11
19217.51580074531
 21
-11467.08579000761
 31
0.0
  0
LINE
  5
6882B
330
18
100
AcDbEntity
  8
姿図
100
AcDbLine
 10
19217.51580074531
 20
-11457.64690477271
 30
0.0
 11
19217.51580074531
 21
-11455.97226384394
 31
0.0
  0
LINE
  5
6882C
330
18
100
AcDbEntity
  8
姿図
100
AcDbLine
 10
19215.18605235863
 20
-11460.29972778565
 30
0.0
 11
19215.18605235863
 21
-11465.26691902594
 31
0.0
  0
LINE
  5
6882D
330
18
100
AcDbEntity
  8
姿図
100
AcDbLine
 10
19217.51580074531
 20
-11438.16017396519
 30
0.0
 11
19215.69703451414
 21
-11439.93727651257
 31
0.0
  0
LINE
  5
6882E
330
18
100
AcDbEntity
  8
姿図
100
AcDbLine
 10
19217.51580074531
 20
-11443.03185666707
 30
0.0
 11
19215.69703451414
 21
-11444.80895921445
 31
0.0
  0
LINE
  5
6882F
330
18
100
AcDbEntity
  8
姿図
100
AcDbLine
 10
19217.51580074531
 20
-11447.90353936895
 30
0.0
 11
19215.69703451414
 21
-11449.68064191633
 31
0.0
  0
LINE
  5
68830
330
18
100
AcDbEntity
  8
姿図
100
AcDbLine
 10
19217.51580074531
 20
-11452.77522207083
 30
0.0
 11
19215.69703451414
 21
-11454.55232461822
 31
0.0
  0
LINE
  5
68831
330
18
100
AcDbEntity
  8
姿図
100
AcDbLine
 10
19217.51580074531
 20
-11457.64690477271
 30
0.0
 11
19215.24079272962
 21
-11457.64690477271
 31
0.0
  0
LINE
  5
68832
330
18
100
AcDbEntity
  8
姿図
100
AcDbLine
 10
19217.51580074531
 20
-11438.16017396519
 30
0.0
 11
19217.51580074531
 21
-11436.48553303642
 31
0.0
  0
LINE
  5
68833
330
18
100
AcDbEntity
  8
姿図
100
AcDbLine
 10
19177.70942191933
 20
-11475.69912185555
 30
0.0
 11
19177.70942191933
 21
-11482.92286175113
 31
0.0
  0
LINE
  5
68834
330
18
100
AcDbEntity
  8
姿図
100
AcDbLine
 10
19217.51580074531
 20
-11469.84590757658
 30
0.0
 11
19177.70942191933
 21
-11476.91775748522
 31
0.0
  0
LINE
  5
68835
330
18
100
AcDbEntity
  8
姿図
100
AcDbLine
 10
19067.48652671437
 20
-11453.01131795865
 30
0.0
 11
19067.48652671437
 21
-11436.70930298609
 31
0.0
  0
ENDSEC
  0
SECTION
  2
OBJECTS
  0
DICTIONARY
  5
C
330
0
100
AcDbDictionary
281
     1
  3
ACAD_GROUP
350
D
  3
ACAD_IMAGE_VARS
350
690BC
  3
ACAD_LAYOUT
350
40CB
  3
ACAD_MLINESTYLE
350
E
  3
ACAD_PLOTSETTINGS
350
40CC
  3
ACAD_PLOTSTYLENAME
350
40C9
  3
ACAD_SCALELIST
350
65334
  3
AcadDim
350
FCCB
  3
AcDbVariableDictionary
350
6377
  3
APPDATA
350
690BB
  3
DWGPROPS
350
690DF
  0
DICTIONARY
  5
63E00
330
2
100
AcDbDictionary
280
     1
281
     1
  3
ACAD_LAYERSTATES
360
63E01
  0
DICTIONARY
  5
66201
330
F
100
AcDbDictionary
280
     1
281
     1
  3
ADSK_XREC_LAYER_RECONCILED
360
66202
  0
DICTIONARY
  5
66209
330
4C
100
AcDbDictionary
280
     1
281
     1
  3
ADSK_XREC_LAYER_RECONCILED
360
6620A
  0
DICTIONARY
  5
6620B
330
4D
100
AcDbDictionary
280
     1
281
     1
  3
ADSK_XREC_LAYER_RECONCILED
360
6620C
  0
DICTIONARY
  5
6620F
330
40D4
100
AcDbDictionary
280
     1
281
     1
  3
ADSK_XREC_LAYER_RECONCILED
360
66210
  0
DICTIONARY
  5
66219
330
63DFF
100
AcDbDictionary
280
     1
281
     1
  3
ADSK_XREC_LAYER_RECONCILED
360
6621A
  0
DICTIONARY
  5
9FD5
330
18
100
AcDbDictionary
280
     1
281
     1
  3
ACAD_SORTENTS
360
6627B
  0
DICTIONARY
  5
D
102
{ACAD_REACTORS
330
C
102
}
330
C
100
AcDbDictionary
281
     1
  0
RASTERVARIABLES
  5
690BC
102
{ACAD_REACTORS
330
C
102
}
330
C
100
AcDbRasterVariables
 90
        0
 70
     1
 71
     1
 72
     0
  0
DICTIONARY
  5
40CB
102
{ACAD_REACTORS
330
C
102
}
330
C
100
AcDbDictionary
281
     1
  3
Model
350
40CD
  3
ﾚｲｱｳﾄ1
350
40CE
  0
DICTIONARY
  5
E
102
{ACAD_REACTORS
330
C
102
}
330
C
100
AcDbDictionary
281
     1
  3
STANDARD
350
1B
  0
DICTIONARY
  5
40CC
102
{ACAD_REACTORS
330
C
102
}
330
C
100
AcDbDictionary
281
     1
  0
ACDBDICTIONARYWDFLT
  5
40C9
102
{ACAD_REACTORS
330
C
102
}
330
C
100
AcDbDictionary
281
     1
  3
Normal
350
40CA
100
AcDbDictionaryWithDefault
340
40CA
  0
DICTIONARY
  5
65334
102
{ACAD_REACTORS
330
C
102
}
330
C
100
AcDbDictionary
281
     1
  3
A0
350
65335
  3
A1
350
65336
  3
A2
350
65337
  3
A3
350
65338
  3
A4
350
65339
  3
A5
350
6533A
  3
A6
350
6533B
  3
A7
350
6533C
  3
A8
350
6533D
  3
A9
350
6533E
  3
B0
350
6533F
  3
B1
350
65340
  3
B2
350
65341
  3
B3
350
65342
  3
B4
350
65343
  3
B5
350
65344
  3
B6
350
65345
  3
B7
350
65346
  3
B8
350
65347
  3
B9
350
65348
  3
C0
350
65349
  3
C1
350
6534A
  3
C2
350
6534B
  3
C3
350
6534C
  3
C4
350
6534D
  3
C5
350
6534E
  3
C6
350
6534F
  3
C7
350
65350
  3
C8
350
65351
  3
C9
350
65352
  3
D0
350
65353
  3
D1
350
65354
  3
D2
350
65355
  0
XRECORD
  5
FCCB
102
{ACAD_REACTORS
330
C
102
}
330
C
100
AcDbXrecord
280
     1
 90
   990106
  3

 60
     0
 61
     0
 62
     1
 63
     3
 64
     0
 65
     0
 66
     0
 67
     3
 68
     1
 69
     0
 70
     0
 71
     0
 72
     0
 40
2.0
170
     0
  0
DICTIONARY
  5
6377
102
{ACAD_REACTORS
330
C
102
}
330
C
100
AcDbDictionary
281
     1
  3
DIMASSOC
350
73F2
  3
INDEXCTL
350
6622E
  3
PROJECTNAME
350
61970
  3
SORTENTS
350
6378
  0
DICTIONARY
  5
690BB
102
{ACAD_REACTORS
330
C
102
}
330
C
100
AcDbDictionary
281
     1
  0
XRECORD
  5
690DF
102
{ACAD_REACTORS
330
C
102
}
330
C
100
AcDbXrecord
280
     1
  1
DWGPROPS COOKIE
  2

  3

  4

  6

  7

  8
SPAX
  9

300
=
301
=
302
=
303
=
304
=
305
=
306
=
307
=
308
=
309
=
 40
0.0
 41
2449505.547222222
 42
2456822.115796366
  1

 90
        0
  0
DICTIONARY
  5
63E01
102
{ACAD_REACTORS
330
63E00
102
}
330
63E00
100
AcDbDictionary
281
     1
  0
XRECORD
  5
66202
102
{ACAD_REACTORS
330
66201
102
}
330
66201
100
AcDbXrecord
280
     1
290
     1
  0
XRECORD
  5
6620A
102
{ACAD_REACTORS
330
66209
102
}
330
66209
100
AcDbXrecord
280
     1
290
     1
  0
XRECORD
  5
6620C
102
{ACAD_REACTORS
330
6620B
102
}
330
6620B
100
AcDbXrecord
280
     1
290
     1
  0
XRECORD
  5
66210
102
{ACAD_REACTORS
330
6620F
102
}
330
6620F
100
AcDbXrecord
280
     1
290
     1
  0
XRECORD
  5
6621A
102
{ACAD_REACTORS
330
66219
102
}
330
66219
100
AcDbXrecord
280
     1
290
     1
  0
SORTENTSTABLE
  5
6627B
102
{ACAD_REACTORS
330
9FD5
102
}
330
9FD5
100
AcDbSortentsTable
330
18
331
0
  5
525F7
  0
LAYOUT
  5
40CD
102
{ACAD_REACTORS
330
40CB
102
}
330
40CB
100
AcDbPlotSettings
  1

  2
JUST PDF 2.pc3
  4
A4
  6
CUT1
 40
3.174999952316284
 41
3.174999952316284
 42
3.175003051757812
 43
3.17498779296875
 44
209.8886566162109
 45
297.0530090332031
 46
14.27
 47
9.86
 48
18853.42994168399
 49
-10849.72352129548
140
20603.38212663306
141
-8139.796769908819
142
1.0
143
10.0
 70
 11940
 72
     1
 73
     0
 74
     4
  7
spax form.ctb
 75
     0
147
0.1
148
-18853.42994168399
149
10849.72352129548
100
AcDbLayout
  1
Model
 70
     1
 71
     0
 10
0.0
 20
0.0
 11
12.0
 21
9.0
 12
0.0
 22
0.0
 32
0.0
 14
18929.09321263628
 24
-11602.2158702201
 34
0.0
 15
19217.51580074531
 25
-11284.27210441867
 35
0.0
146
0.0
 13
0.0
 23
0.0
 33
0.0
 16
1.0
 26
0.0
 36
0.0
 17
0.0
 27
1.0
 37
0.0
 76
     0
330
18
331
68587
1001
ACAD_PSEXT
1000
DWG To PDF.pc3
1000
PDF
1000
ファイル
1000

1070
     0
  0
LAYOUT
  5
40CE
102
{ACAD_REACTORS
330
40CB
102
}
330
40CB
100
AcDbPlotSettings
  1

  2
なし
  4

  6

 40
0.0
 41
0.0
 42
0.0
 43
0.0
 44
0.0
 45
0.0
 46
0.0
 47
0.0
 48
0.0
 49
0.0
140
0.0
141
0.0
142
1.0
143
1.0
 70
   688
 72
     0
 73
     0
 74
     5
  7
spax form.ctb
 75
    16
147
1.0
148
0.0
149
0.0
100
AcDbLayout
  1
ﾚｲｱｳﾄ1
 70
     0
 71
     1
 10
0.0
 20
0.0
 11
12.0
 21
9.0
 12
0.0
 22
0.0
 32
0.0
 14
1.000000000000000E+20
 24
1.000000000000000E+20
 34
1.000000000000000E+20
 15
-1.000000000000000E+20
 25
-1.000000000000000E+20
 35
-1.000000000000000E+20
146
0.0
 13
0.0
 23
0.0
 33
0.0
 16
1.0
 26
0.0
 36
0.0
 17
0.0
 27
1.0
 37
0.0
 76
     0
330
15
  0
MLINESTYLE
  5
1B
102
{ACAD_REACTORS
330
E
102
}
330
E
100
AcDbMlineStyle
  2
STANDARD
 70
     0
  3

 62
     0
 51
90.0
 52
90.0
 71
     2
 49
0.5
 62
   256
  6
BYLAYER
 49
-0.5
 62
   256
  6
BYLAYER
  0
ACDBPLACEHOLDER
  5
40CA
102
{ACAD_REACTORS
330
40C9
102
}
330
40C9
  0
SCALE
  5
65335
102
{ACAD_REACTORS
330
65334
102
}
330
65334
100
AcDbScale
 70
     0
300
1:1
140
1.0
141
1.0
290
     1
1001
ACAD
1000
AcRTDxfName
1000
SCALE
1000
AcRTDxfName
1000
SCALE
1000
AcRTDxfName
1000
SCALE
  0
SCALE
  5
65336
102
{ACAD_REACTORS
330
65334
102
}
330
65334
100
AcDbScale
 70
     0
300
1:2
140
1.0
141
2.0
290
     0
1001
ACAD
1000
AcRTDxfName
1000
SCALE
1000
AcRTDxfName
1000
SCALE
1000
AcRTDxfName
1000
SCALE
  0
SCALE
  5
65337
102
{ACAD_REACTORS
330
65334
102
}
330
65334
100
AcDbScale
 70
     0
300
1:4
140
1.0
141
4.0
290
     0
1001
ACAD
1000
AcRTDxfName
1000
SCALE
1000
AcRTDxfName
1000
SCALE
1000
AcRTDxfName
1000
SCALE
  0
SCALE
  5
65338
102
{ACAD_REACTORS
330
65334
102
}
330
65334
100
AcDbScale
 70
     0
300
1:5
140
1.0
141
5.0
290
     0
1001
ACAD
1000
AcRTDxfName
1000
SCALE
1000
AcRTDxfName
1000
SCALE
1000
AcRTDxfName
1000
SCALE
  0
SCALE
  5
65339
102
{ACAD_REACTORS
330
65334
102
}
330
65334
100
AcDbScale
 70
     0
300
1:8
140
1.0
141
8.0
290
     0
1001
ACAD
1000
AcRTDxfName
1000
SCALE
1000
AcRTDxfName
1000
SCALE
1000
AcRTDxfName
1000
SCALE
  0
SCALE
  5
6533A
102
{ACAD_REACTORS
330
65334
102
}
330
65334
100
AcDbScale
 70
     0
300
1:10
140
1.0
141
10.0
290
     0
1001
ACAD
1000
AcRTDxfName
1000
SCALE
1000
AcRTDxfName
1000
SCALE
1000
AcRTDxfName
1000
SCALE
  0
SCALE
  5
6533B
102
{ACAD_REACTORS
330
65334
102
}
330
65334
100
AcDbScale
 70
     0
300
1:16
140
1.0
141
16.0
290
     0
1001
ACAD
1000
AcRTDxfName
1000
SCALE
1000
AcRTDxfName
1000
SCALE
1000
AcRTDxfName
1000
SCALE
  0
SCALE
  5
6533C
102
{ACAD_REACTORS
330
65334
102
}
330
65334
100
AcDbScale
 70
     0
300
1:20
140
1.0
141
20.0
290
     0
1001
ACAD
1000
AcRTDxfName
1000
SCALE
1000
AcRTDxfName
1000
SCALE
1000
AcRTDxfName
1000
SCALE
  0
SCALE
  5
6533D
102
{ACAD_REACTORS
330
65334
102
}
330
65334
100
AcDbScale
 70
     0
300
1:30
140
1.0
141
30.0
290
     0
1001
ACAD
1000
AcRTDxfName
1000
SCALE
1000
AcRTDxfName
1000
SCALE
1000
AcRTDxfName
1000
SCALE
  0
SCALE
  5
6533E
102
{ACAD_REACTORS
330
65334
102
}
330
65334
100
AcDbScale
 70
     0
300
1:40
140
1.0
141
40.0
290
     0
1001
ACAD
1000
AcRTDxfName
1000
SCALE
1000
AcRTDxfName
1000
SCALE
1000
AcRTDxfName
1000
SCALE
  0
SCALE
  5
6533F
102
{ACAD_REACTORS
330
65334
102
}
330
65334
100
AcDbScale
 70
     0
300
1:50
140
1.0
141
50.0
290
     0
1001
ACAD
1000
AcRTDxfName
1000
SCALE
1000
AcRTDxfName
1000
SCALE
1000
AcRTDxfName
1000
SCALE
  0
SCALE
  5
65340
102
{ACAD_REACTORS
330
65334
102
}
330
65334
100
AcDbScale
 70
     0
300
1:100
140
1.0
141
100.0
290
     0
1001
ACAD
1000
AcRTDxfName
1000
SCALE
1000
AcRTDxfName
1000
SCALE
1000
AcRTDxfName
1000
SCALE
  0
SCALE
  5
65341
102
{ACAD_REACTORS
330
65334
102
}
330
65334
100
AcDbScale
 70
     0
300
2:1
140
2.0
141
1.0
290
     0
1001
ACAD
1000
AcRTDxfName
1000
SCALE
1000
AcRTDxfName
1000
SCALE
1000
AcRTDxfName
1000
SCALE
  0
SCALE
  5
65342
102
{ACAD_REACTORS
330
65334
102
}
330
65334
100
AcDbScale
 70
     0
300
4:1
140
4.0
141
1.0
290
     0
1001
ACAD
1000
AcRTDxfName
1000
SCALE
1000
AcRTDxfName
1000
SCALE
1000
AcRTDxfName
1000
SCALE
  0
SCALE
  5
65343
102
{ACAD_REACTORS
330
65334
102
}
330
65334
100
AcDbScale
 70
     0
300
8:1
140
8.0
141
1.0
290
     0
1001
ACAD
1000
AcRTDxfName
1000
SCALE
1000
AcRTDxfName
1000
SCALE
1000
AcRTDxfName
1000
SCALE
  0
SCALE
  5
65344
102
{ACAD_REACTORS
330
65334
102
}
330
65334
100
AcDbScale
 70
     0
300
10:1
140
10.0
141
1.0
290
     0
1001
ACAD
1000
AcRTDxfName
1000
SCALE
1000
AcRTDxfName
1000
SCALE
1000
AcRTDxfName
1000
SCALE
  0
SCALE
  5
65345
102
{ACAD_REACTORS
330
65334
102
}
330
65334
100
AcDbScale
 70
     0
300
100:1
140
100.0
141
1.0
290
     0
1001
ACAD
1000
AcRTDxfName
1000
SCALE
1000
AcRTDxfName
1000
SCALE
1000
AcRTDxfName
1000
SCALE
  0
SCALE
  5
65346
102
{ACAD_REACTORS
330
65334
102
}
330
65334
100
AcDbScale
 70
     0
300
1/128" = 1'-0"
140
0.0078125
141
12.0
290
     0
1001
ACAD
1000
AcRTDxfName
1000
SCALE
1000
AcRTDxfName
1000
SCALE
1000
AcRTDxfName
1000
SCALE
  0
SCALE
  5
65347
102
{ACAD_REACTORS
330
65334
102
}
330
65334
100
AcDbScale
 70
     0
300
1/64" = 1'-0"
140
0.015625
141
12.0
290
     0
1001
ACAD
1000
AcRTDxfName
1000
SCALE
1000
AcRTDxfName
1000
SCALE
1000
AcRTDxfName
1000
SCALE
  0
SCALE
  5
65348
102
{ACAD_REACTORS
330
65334
102
}
330
65334
100
AcDbScale
 70
     0
300
1/32" = 1'-0"
140
0.03125
141
12.0
290
     0
1001
ACAD
1000
AcRTDxfName
1000
SCALE
1000
AcRTDxfName
1000
SCALE
1000
AcRTDxfName
1000
SCALE
  0
SCALE
  5
65349
102
{ACAD_REACTORS
330
65334
102
}
330
65334
100
AcDbScale
 70
     0
300
1/16" = 1'-0"
140
0.0625
141
12.0
290
     0
1001
ACAD
1000
AcRTDxfName
1000
SCALE
1000
AcRTDxfName
1000
SCALE
1000
AcRTDxfName
1000
SCALE
  0
SCALE
  5
6534A
102
{ACAD_REACTORS
330
65334
102
}
330
65334
100
AcDbScale
 70
     0
300
3/32" = 1'-0"
140
0.09375
141
12.0
290
     0
1001
ACAD
1000
AcRTDxfName
1000
SCALE
1000
AcRTDxfName
1000
SCALE
1000
AcRTDxfName
1000
SCALE
  0
SCALE
  5
6534B
102
{ACAD_REACTORS
330
65334
102
}
330
65334
100
AcDbScale
 70
     0
300
1/8" = 1'-0"
140
0.125
141
12.0
290
     0
1001
ACAD
1000
AcRTDxfName
1000
SCALE
1000
AcRTDxfName
1000
SCALE
1000
AcRTDxfName
1000
SCALE
  0
SCALE
  5
6534C
102
{ACAD_REACTORS
330
65334
102
}
330
65334
100
AcDbScale
 70
     0
300
3/16" = 1'-0"
140
0.1875
141
12.0
290
     0
1001
ACAD
1000
AcRTDxfName
1000
SCALE
1000
AcRTDxfName
1000
SCALE
1000
AcRTDxfName
1000
SCALE
  0
SCALE
  5
6534D
102
{ACAD_REACTORS
330
65334
102
}
330
65334
100
AcDbScale
 70
     0
300
1/4" = 1'-0"
140
0.25
141
12.0
290
     0
1001
ACAD
1000
AcRTDxfName
1000
SCALE
1000
AcRTDxfName
1000
SCALE
1000
AcRTDxfName
1000
SCALE
  0
SCALE
  5
6534E
102
{ACAD_REACTORS
330
65334
102
}
330
65334
100
AcDbScale
 70
     0
300
3/8" = 1'-0"
140
0.375
141
12.0
290
     0
1001
ACAD
1000
AcRTDxfName
1000
SCALE
1000
AcRTDxfName
1000
SCALE
1000
AcRTDxfName
1000
SCALE
  0
SCALE
  5
6534F
102
{ACAD_REACTORS
330
65334
102
}
330
65334
100
AcDbScale
 70
     0
300
1/2" = 1'-0"
140
0.5
141
12.0
290
     0
1001
ACAD
1000
AcRTDxfName
1000
SCALE
1000
AcRTDxfName
1000
SCALE
1000
AcRTDxfName
1000
SCALE
  0
SCALE
  5
65350
102
{ACAD_REACTORS
330
65334
102
}
330
65334
100
AcDbScale
 70
     0
300
3/4" = 1'-0"
140
0.75
141
12.0
290
     0
1001
ACAD
1000
AcRTDxfName
1000
SCALE
1000
AcRTDxfName
1000
SCALE
1000
AcRTDxfName
1000
SCALE
  0
SCALE
  5
65351
102
{ACAD_REACTORS
330
65334
102
}
330
65334
100
AcDbScale
 70
     0
300
1" = 1'-0"
140
1.0
141
12.0
290
     0
1001
ACAD
1000
AcRTDxfName
1000
SCALE
1000
AcRTDxfName
1000
SCALE
1000
AcRTDxfName
1000
SCALE
  0
SCALE
  5
65352
102
{ACAD_REACTORS
330
65334
102
}
330
65334
100
AcDbScale
 70
     0
300
1-1/2" = 1'-0"
140
1.5
141
12.0
290
     0
1001
ACAD
1000
AcRTDxfName
1000
SCALE
1000
AcRTDxfName
1000
SCALE
1000
AcRTDxfName
1000
SCALE
  0
SCALE
  5
65353
102
{ACAD_REACTORS
330
65334
102
}
330
65334
100
AcDbScale
 70
     0
300
3" = 1'-0"
140
3.0
141
12.0
290
     0
1001
ACAD
1000
AcRTDxfName
1000
SCALE
1000
AcRTDxfName
1000
SCALE
1000
AcRTDxfName
1000
SCALE
  0
SCALE
  5
65354
102
{ACAD_REACTORS
330
65334
102
}
330
65334
100
AcDbScale
 70
     0
300
6" = 1'-0"
140
6.0
141
12.0
290
     0
1001
ACAD
1000
AcRTDxfName
1000
SCALE
1000
AcRTDxfName
1000
SCALE
1000
AcRTDxfName
1000
SCALE
  0
SCALE
  5
65355
102
{ACAD_REACTORS
330
65334
102
}
330
65334
100
AcDbScale
 70
     0
300
1'-0" = 1'-0"
140
12.0
141
12.0
290
     0
1001
ACAD
1000
AcRTDxfName
1000
SCALE
1000
AcRTDxfName
1000
SCALE
1000
AcRTDxfName
1000
SCALE
  0
DICTIONARYVAR
  5
73F2
102
{ACAD_REACTORS
330
6377
102
}
330
6377
100
DictionaryVariables
280
     0
  1
1
  0
DICTIONARYVAR
  5
6622E
102
{ACAD_REACTORS
330
6377
102
}
330
6377
100
DictionaryVariables
280
     0
  1
0
  0
DICTIONARYVAR
  5
61970
102
{ACAD_REACTORS
330
6377
102
}
330
6377
100
DictionaryVariables
280
     0
  1

  0
DICTIONARYVAR
  5
6378
102
{ACAD_REACTORS
330
6377
102
}
330
6377
100
DictionaryVariables
280
     0
  1
96
  0
ENDSEC
  0
EOF
