  0
SECTION
  2
HEADER
  9
$ACADVER
  1
AC1015
  9
$ACADMAINTVER
 70
     6
  9
$DWGCODEPAGE
  3
ANSI_932
  9
$INSBASE
 10
0.0
 20
0.0
 30
0.0
  9
$EXTMIN
 10
14476.31284627116
 20
-12000.76023094428
 30
0.0
  9
$EXTMAX
 10
14898.9638320189
 20
-11573.3727037335
 30
0.0
  9
$LIMMIN
 10
0.0
 20
0.0
  9
$LIMMAX
 10
840.0
 20
594.0
  9
$ORTHOMODE
 70
     1
  9
$REGENMODE
 70
     1
  9
$FILLMODE
 70
     1
  9
$QTEXTMODE
 70
     0
  9
$MIRRTEXT
 70
     1
  9
$LTSCALE
 40
7.0
  9
$ATTMODE
 70
     0
  9
$TEXTSIZE
 40
6.0
  9
$TRACEWID
 40
1.0
  9
$TEXTSTYLE
  7
STANDARD
  9
$CLAYER
  8
寸法線
  9
$CELTYPE
  6
BYLAYER
  9
$CECOLOR
 62
   256
  9
$CELTSCALE
 40
1.0
  9
$DISPSILH
 70
     0
  9
$DIMSCALE
 40
1.0
  9
$DIMASZ
 40
10.0
  9
$DIMEXO
 40
3.0
  9
$DIMDLI
 40
7.149999999999999
  9
$DIMRND
 40
0.0
  9
$DIMDLE
 40
0.0
  9
$DIMEXE
 40
2.0
  9
$DIMTP
 40
0.0
  9
$DIMTM
 40
0.0
  9
$DIMTXT
 40
18.0
  9
$DIMCEN
 40
0.0
  9
$DIMTSZ
 40
0.0
  9
$DIMTOL
 70
     0
  9
$DIMLIM
 70
     0
  9
$DIMTIH
 70
     0
  9
$DIMTOH
 70
     0
  9
$DIMSE1
 70
     0
  9
$DIMSE2
 70
     0
  9
$DIMTAD
 70
     3
  9
$DIMZIN
 70
     8
  9
$DIMBLK
  1
OPEN
  9
$DIMASO
 70
     1
  9
$DIMSHO
 70
     0
  9
$DIMPOST
  1

  9
$DIMAPOST
  1

  9
$DIMALT
 70
     0
  9
$DIMALTD
 70
     2
  9
$DIMALTF
 40
25.4
  9
$DIMLFAC
 40
1.0
  9
$DIMTOFL
 70
     0
  9
$DIMTVP
 40
0.0
  9
$DIMTIX
 70
     0
  9
$DIMSOXD
 70
     0
  9
$DIMSAH
 70
     0
  9
$DIMBLK1
  1

  9
$DIMBLK2
  1

  9
$DIMSTYLE
  2
STANDARD
  9
$DIMCLRD
 70
     8
  9
$DIMCLRE
 70
     8
  9
$DIMCLRT
 70
     0
  9
$DIMTFAC
 40
1.0
  9
$DIMGAP
 40
4.0
  9
$DIMJUST
 70
     0
  9
$DIMSD1
 70
     0
  9
$DIMSD2
 70
     0
  9
$DIMTOLJ
 70
     1
  9
$DIMTZIN
 70
     0
  9
$DIMALTZ
 70
     0
  9
$DIMALTTZ
 70
     0
  9
$DIMUPT
 70
     1
  9
$DIMDEC
 70
     2
  9
$DIMTDEC
 70
     2
  9
$DIMALTU
 70
     2
  9
$DIMALTTD
 70
     2
  9
$DIMTXSTY
  7
STANDARD
  9
$DIMAUNIT
 70
     0
  9
$DIMADEC
 70
     2
  9
$DIMALTRND
 40
0.0
  9
$DIMAZIN
 70
     2
  9
$DIMDSEP
 70
    46
  9
$DIMATFIT
 70
     3
  9
$DIMFRAC
 70
     0
  9
$DIMLDRBLK
  1
OPEN
  9
$DIMLUNIT
 70
     2
  9
$DIMLWD
 70
    -2
  9
$DIMLWE
 70
    -2
  9
$DIMTMOVE
 70
     0
  9
$LUNITS
 70
     2
  9
$LUPREC
 70
     2
  9
$SKETCHINC
 40
0.1
  9
$FILLETRAD
 40
0.6
  9
$AUNITS
 70
     0
  9
$AUPREC
 70
     2
  9
$MENU
  1
ACAD
  9
$ELEVATION
 40
0.0
  9
$PELEVATION
 40
0.0
  9
$THICKNESS
 40
0.0
  9
$LIMCHECK
 70
     0
  9
$CHAMFERA
 40
0.0
  9
$CHAMFERB
 40
0.0
  9
$CHAMFERC
 40
0.0
  9
$CHAMFERD
 40
0.0
  9
$SKPOLY
 70
     0
  9
$TDCREATE
 40
2449505.922222222
  9
$TDUCREATE
 40
2449505.547222222
  9
$TDUPDATE
 40
2456822.491661412
  9
$TDUUPDATE
 40
2456822.116661412
  9
$TDINDWG
 40
2.8918265509
  9
$TDUSRTIMER
 40
2456822.116540452
  9
$USRTIMER
 70
     1
  9
$ANGBASE
 50
0.0
  9
$ANGDIR
 70
     0
  9
$PDMODE
 70
     3
  9
$PDSIZE
 40
0.0
  9
$PLINEWID
 40
0.0
  9
$SPLFRAME
 70
     0
  9
$SPLINETYPE
 70
     6
  9
$SPLINESEGS
 70
     8
  9
$HANDSEED
  5
68785
  9
$SURFTAB1
 70
     6
  9
$SURFTAB2
 70
     6
  9
$SURFTYPE
 70
     6
  9
$SURFU
 70
     6
  9
$SURFV
 70
     6
  9
$UCSBASE
  2

  9
$UCSNAME
  2

  9
$UCSORG
 10
0.0
 20
0.0
 30
0.0
  9
$UCSXDIR
 10
1.0
 20
0.0
 30
0.0
  9
$UCSYDIR
 10
0.0
 20
1.0
 30
0.0
  9
$UCSORTHOREF
  2

  9
$UCSORTHOVIEW
 70
     0
  9
$UCSORGTOP
 10
0.0
 20
0.0
 30
0.0
  9
$UCSORGBOTTOM
 10
0.0
 20
0.0
 30
0.0
  9
$UCSORGLEFT
 10
0.0
 20
0.0
 30
0.0
  9
$UCSORGRIGHT
 10
0.0
 20
0.0
 30
0.0
  9
$UCSORGFRONT
 10
0.0
 20
0.0
 30
0.0
  9
$UCSORGBACK
 10
0.0
 20
0.0
 30
0.0
  9
$PUCSBASE
  2

  9
$PUCSNAME
  2

  9
$PUCSORG
 10
0.0
 20
0.0
 30
0.0
  9
$PUCSXDIR
 10
1.0
 20
0.0
 30
0.0
  9
$PUCSYDIR
 10
0.0
 20
1.0
 30
0.0
  9
$PUCSORTHOREF
  2

  9
$PUCSORTHOVIEW
 70
     0
  9
$PUCSORGTOP
 10
0.0
 20
0.0
 30
0.0
  9
$PUCSORGBOTTOM
 10
0.0
 20
0.0
 30
0.0
  9
$PUCSORGLEFT
 10
0.0
 20
0.0
 30
0.0
  9
$PUCSORGRIGHT
 10
0.0
 20
0.0
 30
0.0
  9
$PUCSORGFRONT
 10
0.0
 20
0.0
 30
0.0
  9
$PUCSORGBACK
 10
0.0
 20
0.0
 30
0.0
  9
$USERI1
 70
     0
  9
$USERI2
 70
     0
  9
$USERI3
 70
     0
  9
$USERI4
 70
     0
  9
$USERI5
 70
     0
  9
$USERR1
 40
0.0
  9
$USERR2
 40
0.0
  9
$USERR3
 40
0.0
  9
$USERR4
 40
0.0
  9
$USERR5
 40
0.0
  9
$WORLDVIEW
 70
     0
  9
$SHADEDGE
 70
     3
  9
$SHADEDIF
 70
    70
  9
$TILEMODE
 70
     1
  9
$MAXACTVP
 70
    16
  9
$PINSBASE
 10
0.0
 20
0.0
 30
0.0
  9
$PLIMCHECK
 70
     0
  9
$PEXTMIN
 10
1.000000000000000E+20
 20
1.000000000000000E+20
 30
1.000000000000000E+20
  9
$PEXTMAX
 10
-1.000000000000000E+20
 20
-1.000000000000000E+20
 30
-1.000000000000000E+20
  9
$PLIMMIN
 10
0.0
 20
0.0
  9
$PLIMMAX
 10
0.0
 20
0.0
  9
$UNITMODE
 70
     0
  9
$VISRETAIN
 70
     0
  9
$PLINEGEN
 70
     0
  9
$PSLTSCALE
 70
     0
  9
$TREEDEPTH
 70
  3020
  9
$CMLSTYLE
  2
STANDARD
  9
$CMLJUST
 70
     0
  9
$CMLSCALE
 40
1.0
  9
$PROXYGRAPHICS
 70
     1
  9
$MEASUREMENT
 70
     0
  9
$CELWEIGHT
370
    -1
  9
$ENDCAPS
280
     0
  9
$JOINSTYLE
280
     0
  9
$LWDISPLAY
290
     0
  9
$INSUNITS
 70
     0
  9
$HYPERLINKBASE
  1

  9
$STYLESHEET
  1
spax form.ctb
  9
$XEDIT
290
     1
  9
$CEPSNTYPE
380
     0
  9
$PSTYLEMODE
290
     1
  9
$FINGERPRINTGUID
  2
{C1CFCF3E-DF91-11D3-B30C-0060B0FA8DFC}
  9
$VERSIONGUID
  2
{B2D11752-371A-4BC4-A8A1-38D14D488CDB}
  9
$EXTNAMES
290
     1
  9
$PSVPSCALE
 40
0.0
  9
$OLESTARTUP
290
     0
  0
ENDSEC
  0
SECTION
  2
CLASSES
  0
CLASS
  1
LWPOLYLINE
  2
AcDbPolyline
  3
ObjectDBX Classes
 90
        0
280
     0
281
     1
  0
CLASS
  1
ACDBDICTIONARYWDFLT
  2
AcDbDictionaryWithDefault
  3
ObjectDBX Classes
 90
        0
280
     0
281
     0
  0
CLASS
  1
ACDBPLACEHOLDER
  2
AcDbPlaceHolder
  3
ObjectDBX Classes
 90
        0
280
     0
281
     0
  0
CLASS
  1
LAYOUT
  2
AcDbLayout
  3
ObjectDBX Classes
 90
        0
280
     0
281
     0
  0
CLASS
  1
DICTIONARYVAR
  2
AcDbDictionaryVar
  3
ObjectDBX Classes
 90
        0
280
     0
281
     0
  0
CLASS
  1
LONG_TRANSACTION
  2
AcDbLongTransaction
  3
ObjectDBX Classes
 90
        0
280
     0
281
     0
  0
CLASS
  1
LWPOLYLINE
  2
AcDbPolyline
  3
ObjectDBX Classes
 90
        0
280
     0
281
     1
  0
CLASS
  1
HATCH
  2
AcDbHatch
  3
ObjectDBX Classes
 90
        0
280
     0
281
     1
  0
CLASS
  1
XRECORD
  2
AcDbXrecord
  3
ObjectDBX Classes
 90
        0
280
     0
281
     0
  0
CLASS
  1
SORTENTSTABLE
  2
AcDbSortentsTable
  3
ObjectDBX Classes
 90
        0
280
     0
281
     0
  0
CLASS
  1
MATERIAL
  2
AcDbMaterial
  3
ObjectDBX Classes
 90
     1153
280
     0
281
     0
  0
CLASS
  1
VISUALSTYLE
  2
AcDbVisualStyle
  3
ObjectDBX Classes
 90
     4095
280
     0
281
     0
  0
CLASS
  1
TABLESTYLE
  2
AcDbTableStyle
  3
ObjectDBX Classes
 90
     4095
280
     0
281
     0
  0
CLASS
  1
SCALE
  2
AcDbScale
  3
ObjectDBX Classes
 90
     1153
280
     0
281
     0
  0
CLASS
  1
MLEADERSTYLE
  2
AcDbMLeaderStyle
  3
ACDB_MLEADERSTYLE_CLASS
 90
     4095
280
     0
281
     0
  0
CLASS
  1
CELLSTYLEMAP
  2
AcDbCellStyleMap
  3
ObjectDBX Classes
 90
     1152
280
     0
281
     0
  0
CLASS
  1
RASTERVARIABLES
  2
AcDbRasterVariables
  3
ISM
 90
        0
280
     0
281
     0
  0
CLASS
  1
SUN
  2
AcDbSun
  3
SCENEOE
 90
     1153
280
     0
281
     0
  0
ENDSEC
  0
SECTION
  2
TABLES
  0
TABLE
  2
VPORT
  5
8
330
0
100
AcDbSymbolTable
 70
     1
  0
VPORT
  5
67CA2
330
8
100
AcDbSymbolTableRecord
100
AcDbViewportTableRecord
  2
*Active
 70
     0
 10
0.0
 20
0.0
 11
1.0
 21
1.0
 12
14687.63833914503
 22
-11787.06646733889
 13
0.0
 23
0.0
 14
1.0
 24
1.0
 15
20.0
 25
20.0
 16
0.0
 26
0.0
 36
1.0
 17
0.0
 27
0.0
 37
0.0
 40
435.9352777549954
 41
2.027568922305764
 42
50.0
 43
0.0
 44
0.0
 50
0.0
 51
0.0
 71
    16
 72
  2000
 73
     1
 74
     0
 75
     0
 76
     0
 77
     0
 78
     1
281
     0
 65
     1
110
0.0
120
0.0
130
0.0
111
1.0
121
0.0
131
0.0
112
0.0
122
1.0
132
0.0
 79
     0
146
0.0
  0
ENDTAB
  0
TABLE
  2
LTYPE
  5
5
330
0
100
AcDbSymbolTable
 70
     4
  0
LTYPE
  5
12
330
5
100
AcDbSymbolTableRecord
100
AcDbLinetypeTableRecord
  2
BYBLOCK
 70
     0
  3

 72
    65
 73
     0
 40
0.0
  0
LTYPE
  5
13
330
5
100
AcDbSymbolTableRecord
100
AcDbLinetypeTableRecord
  2
BYLAYER
 70
     0
  3

 72
    65
 73
     0
 40
0.0
  0
LTYPE
  5
14
330
5
100
AcDbSymbolTableRecord
100
AcDbLinetypeTableRecord
  2
CONTINUOUS
 70
     0
  3
Solid line
 72
    65
 73
     0
 40
0.0
  0
LTYPE
  5
3D
330
5
100
AcDbSymbolTableRecord
100
AcDbLinetypeTableRecord
  2
PHANTOM
 70
     0
  3
_____ _ _ _____ _ _ _____ _ _ _____ _ _ ____
 72
    65
 73
     6
 40
2.5
 49
1.25
 74
     0
 49
-0.25
 74
     0
 49
0.25
 74
     0
 49
-0.25
 74
     0
 49
0.25
 74
     0
 49
-0.25
 74
     0
  0
LTYPE
  5
40D2
330
5
100
AcDbSymbolTableRecord
100
AcDbLinetypeTableRecord
  2
CENTER
 70
     0
  3
____ _ ____ _ ____ _ ____ _ ____ _ ____ _ ____ 
 72
    65
 73
     4
 40
2.0
 49
1.25
 74
     0
 49
-0.25
 74
     0
 49
0.25
 74
     0
 49
-0.25
 74
     0
  0
LTYPE
  5
A244
330
5
100
AcDbSymbolTableRecord
100
AcDbLinetypeTableRecord
  2
HIDDEN
 70
     0
  3
_ _ _ _ _ _ _ _ _ _ _ _ _ _ _ _ _ _ _ _ _ _ _
 72
    65
 73
     2
 40
0.375
 49
0.25
 74
     0
 49
-0.125
 74
     0
  0
ENDTAB
  0
TABLE
  2
LAYER
  5
2
102
{ACAD_XDICTIONARY
360
64D43
102
}
330
0
100
AcDbSymbolTable
 70
    12
  0
LAYER
  5
F
102
{ACAD_XDICTIONARY
360
65C59
102
}
330
2
100
AcDbSymbolTableRecord
100
AcDbLayerTableRecord
  2
0
 70
     0
 62
     7
  6
CONTINUOUS
370
    -3
390
40CA
  0
LAYER
  5
4C
102
{ACAD_XDICTIONARY
360
65C61
102
}
330
2
100
AcDbSymbolTableRecord
100
AcDbLayerTableRecord
  2
寸法線
 70
     0
 62
     7
  6
CONTINUOUS
370
    -3
390
40CA
  0
LAYER
  5
4D
102
{ACAD_XDICTIONARY
360
65C63
102
}
330
2
100
AcDbSymbolTableRecord
100
AcDbLayerTableRecord
  2
姿図
 70
     0
 62
     8
  6
CONTINUOUS
370
    -3
390
40CA
  0
LAYER
  5
40D4
102
{ACAD_XDICTIONARY
360
65C67
102
}
330
2
100
AcDbSymbolTableRecord
100
AcDbLayerTableRecord
  2
文字
 70
     0
 62
     7
  6
CONTINUOUS
370
    -3
390
40CA
  0
LAYER
  5
64DCD
102
{ACAD_XDICTIONARY
360
65C6D
102
}
330
2
100
AcDbSymbolTableRecord
100
AcDbLayerTableRecord
  2
C-SUNPO
 70
     0
 62
     7
  6
CONTINUOUS
370
    -3
390
40CA
  0
ENDTAB
  0
TABLE
  2
STYLE
  5
3
330
0
100
AcDbSymbolTable
 70
     1
  0
STYLE
  5
10
330
3
100
AcDbSymbolTableRecord
100
AcDbTextStyleTableRecord
  2
STANDARD
 70
     0
 40
0.0
 41
1.0
 50
0.0
 71
     0
 42
6.0
  3
MONOTXT
  4
BIGFONT
  0
ENDTAB
  0
TABLE
  2
VIEW
  5
6
330
0
100
AcDbSymbolTable
 70
     1
  0
VIEW
  5
41
330
6
100
AcDbSymbolTableRecord
100
AcDbViewTableRecord
  2
CUT1
 70
     0
 40
612.7795527156796
 10
420.0000000000169
 20
306.3897763578398
 41
840.0000000000338
 11
0.0
 21
0.0
 31
1.0
 12
0.0
 22
0.0
 32
0.0
 42
50.0
 43
0.0
 44
0.0
 50
0.0
 71
     0
281
     0
 72
     0
  0
ENDTAB
  0
TABLE
  2
UCS
  5
7
330
0
100
AcDbSymbolTable
 70
     0
  0
ENDTAB
  0
TABLE
  2
APPID
  5
9
330
0
100
AcDbSymbolTable
 70
     6
  0
APPID
  5
11
330
9
100
AcDbSymbolTableRecord
100
AcDbRegAppTableRecord
  2
ACAD
 70
     0
  0
APPID
  5
64E2F
330
9
100
AcDbSymbolTableRecord
100
AcDbRegAppTableRecord
  2
ACAD_MLEADERVER
 70
     0
  0
APPID
  5
65886
330
9
100
AcDbSymbolTableRecord
100
AcDbRegAppTableRecord
  2
ACAD_EXEMPT_FROM_CAD_STANDARDS
 70
     0
  0
APPID
  5
6674E
330
9
100
AcDbSymbolTableRecord
100
AcDbRegAppTableRecord
  2
ACAD_PSEXT
 70
     0
  0
APPID
  5
68711
330
9
100
AcDbSymbolTableRecord
100
AcDbRegAppTableRecord
  2
ACAD_DSTYLE_DIMJAG
 70
     0
  0
APPID
  5
68712
330
9
100
AcDbSymbolTableRecord
100
AcDbRegAppTableRecord
  2
ACAD_DSTYLE_DIMTALN
 70
     0
  0
ENDTAB
  0
TABLE
  2
DIMSTYLE
  5
A
330
0
100
AcDbSymbolTable
 70
     5
100
AcDbDimStyleTable
  0
DIMSTYLE
105
1B3A
330
A
100
AcDbSymbolTableRecord
100
AcDbDimStyleTableRecord
  2
STANDARD
 70
     0
 41
10.0
 42
3.0
 43
7.149999999999999
 44
2.0
 73
     0
 74
     0
 77
     3
 78
     8
 79
     2
140
18.0
141
0.0
147
4.0
176
     8
177
     8
178
     0
179
     2
271
     2
272
     2
288
     1
340
10
341
49C3
342
49C3
  0
DIMSTYLE
105
A246
330
A
100
AcDbSymbolTableRecord
100
AcDbDimStyleTableRecord
  2
STANDERD
 70
     0
 40
0.0
 41
4.0
 42
1.5
 43
3.75
 44
1.25
 73
     0
 74
     0
 77
     3
 78
     8
140
5.0
141
0.0
147
2.5
171
     0
173
     1
178
     0
288
     1
340
10
341
49C3
343
49C3
344
49C3
  0
DIMSTYLE
105
64236
330
A
100
AcDbSymbolTableRecord
100
AcDbDimStyleTableRecord
  2
STANDARD-5
 70
     0
 41
7.5
 42
7.5
 43
1.9
 44
5.0
 73
     0
 74
     0
 77
     1
 78
     8
 79
     2
140
12.5
141
0.0
147
3.0
171
     0
173
     1
176
     8
177
     8
271
     2
178
   256
179
     2
271
     2
272
     2
274
     0
340
10
341
49C3
343
49C3
344
49C3
  0
ENDTAB
  0
TABLE
  2
BLOCK_RECORD
  5
1
330
0
100
AcDbSymbolTable
 70
   148
  0
BLOCK_RECORD
  5
18
330
1
100
AcDbSymbolTableRecord
100
AcDbBlockTableRecord
  2
*MODEL_SPACE
340
40CD
  0
BLOCK_RECORD
  5
15
330
1
100
AcDbSymbolTableRecord
100
AcDbBlockTableRecord
  2
*PAPER_SPACE
340
40CE
  0
BLOCK_RECORD
  5
49C3
330
1
100
AcDbSymbolTableRecord
100
AcDbBlockTableRecord
  2
_OPEN
340
0
102
{BLKREFS
331
5813F
331
58140
331
58148
331
58149
331
5816C
331
5816D
331
58189
331
5818A
331
61E72
331
61E73
331
61E86
331
61E87
331
61E8F
331
61E90
331
61EB7
331
61EB8
331
61EC0
331
61EC1
331
61F52
331
61F53
331
61F64
331
61F65
331
622EB
331
622EC
331
622F6
331
622F7
331
622FF
331
62300
331
62313
331
62314
331
626B8
331
626B9
331
630B0
331
630B1
331
630BB
331
630BC
331
630C4
331
630C5
331
630CD
331
630CE
331
630D6
331
630D7
331
630DF
331
630E0
331
630E8
331
630E9
331
630F1
331
630F2
331
630FA
331
630FB
331
63105
331
63106
331
6310E
331
6310F
331
63117
331
63118
331
63120
331
63121
331
6312B
331
6312C
331
63134
331
63135
331
6313D
331
6313E
331
64173
331
64174
331
6417C
331
6417D
331
64185
331
64186
331
6418E
331
6418F
331
64197
331
64198
331
641A2
331
641A3
331
641AB
331
641AC
331
641B8
331
641B9
331
641C1
331
641C2
331
641CA
331
641CB
331
641D3
331
641D4
331
641DC
331
641DD
331
641E5
331
641E6
331
641EE
331
641EF
331
641F7
331
641F8
331
64200
331
64201
331
64C9F
331
64CA0
331
64CA8
331
64CA9
331
64CB3
331
64CB4
331
64CBC
331
64CBD
331
64CC5
331
64CC6
331
64CD0
331
64CD1
331
64CD9
331
64CDA
331
64CE2
331
64CE3
331
64CEB
331
64CEC
331
64CF6
331
64CF7
331
64CFF
331
64D00
331
64D08
331
64D09
331
64D11
331
64D12
331
64D1A
331
64D1B
331
64D23
331
64D24
331
64D2C
331
64D2D
331
657F2
331
657F3
331
657FB
331
657FC
331
65806
331
65807
331
6580F
331
65810
331
65818
331
65819
331
65821
331
65822
331
6582C
331
6582D
331
65835
331
65836
331
6583E
331
6583F
331
65850
331
65851
331
65859
331
6585A
331
65876
331
65877
331
6587F
331
65880
331
65C3F
331
65C40
331
65C4A
331
65C4B
331
65C53
331
65C54
331
66690
331
66691
331
6669B
331
6669C
331
666A4
331
666A5
331
666AD
331
666AE
331
666B6
331
666B7
331
666C1
331
666C2
331
666CA
331
666CB
331
666D3
331
666D4
331
666DC
331
666DD
331
666E7
331
666E8
331
666F0
331
666F1
331
666F9
331
666FA
331
66702
331
66703
331
6670B
331
6670C
331
66714
331
66715
331
6671D
331
6671E
331
67130
331
67131
331
6713B
331
6713C
331
67144
331
67145
331
6714D
331
6714E
331
67156
331
67157
331
6715F
331
67160
331
67168
331
67169
331
67171
331
67172
331
6717A
331
6717B
331
67185
331
67186
331
6718E
331
6718F
331
67197
331
67198
331
671A0
331
671A1
331
671A9
331
671AA
331
671B4
331
671B5
331
671BD
331
671BE
331
67B92
331
67B93
331
67B9B
331
67B9C
331
67BA4
331
67BA5
331
67BAD
331
67BAE
331
67BB6
331
67BB7
331
67BBF
331
67BC0
331
67BCA
331
67BCB
331
67BD3
331
67BD4
331
67BDC
331
67BDD
331
67BE5
331
67BE6
331
67BF0
331
67BF1
331
67BF9
331
67BFA
331
67C02
331
67C03
331
67C0B
331
67C0C
331
67C14
331
67C15
331
67C1D
331
67C1E
331
68671
331
68672
331
6867A
331
6867B
331
68683
331
68684
331
6868C
331
6868D
331
68695
331
68696
331
6869E
331
6869F
331
686A7
331
686A8
331
686B0
331
686B1
331
686B9
331
686BA
331
686C2
331
686C3
331
686CD
331
686CE
331
686D6
331
686D7
331
686DF
331
686E0
331
686E8
331
686E9
331
686F3
331
686F4
331
686FE
331
686FF
102
}
  0
ENDTAB
  0
ENDSEC
  0
SECTION
  2
BLOCKS
  0
BLOCK
  5
52
330
18
100
AcDbEntity
  8
0
100
AcDbBlockBegin
  2
*MODEL_SPACE
 70
     0
 10
0.0
 20
0.0
 30
0.0
  3
*MODEL_SPACE
  1
*MODEL_SPACE
  0
ENDBLK
  5
53
330
18
100
AcDbEntity
  8
0
100
AcDbBlockEnd
  0
BLOCK
  5
50
330
15
100
AcDbEntity
 67
     1
  8
0
100
AcDbBlockBegin
  2
*PAPER_SPACE
 70
     0
 10
0.0
 20
0.0
 30
0.0
  3
*PAPER_SPACE
  1
*PAPER_SPACE
  0
ENDBLK
  5
51
330
15
100
AcDbEntity
 67
     1
  8
0
100
AcDbBlockEnd
  0
BLOCK
  5
49C7
330
49C3
100
AcDbEntity
  8
0
100
AcDbBlockBegin
  2
_OPEN
 70
     0
 10
0.0
 20
0.0
 30
0.0
  3
_OPEN
  1
_OPEN
  0
LINE
  5
49C4
330
49C3
100
AcDbEntity
  8
0
  6
ByBlock
 62
     0
100
AcDbLine
 10
-1.0
 20
0.1666666666666667
 30
0.0
 11
0.0
 21
0.0
 31
0.0
  0
LINE
  5
49C5
330
49C3
100
AcDbEntity
  8
0
  6
ByBlock
 62
     0
100
AcDbLine
 10
0.0
 20
0.0
 30
0.0
 11
-1.0
 21
-0.1666666666666667
 31
0.0
  0
LINE
  5
49C6
330
49C3
100
AcDbEntity
  8
0
  6
ByBlock
 62
     0
100
AcDbLine
 10
0.0
 20
0.0
 30
0.0
 11
-1.0
 21
0.0
 31
0.0
  0
ENDBLK
  5
49C8
330
49C3
100
AcDbEntity
  8
0
100
AcDbBlockEnd
  0
ENDSEC
  0
SECTION
  2
ENTITIES
  0
LINE
  5
67CB1
330
18
100
AcDbEntity
  8
姿図
100
AcDbLine
 10
14697.62520037168
 20
-11895.93173559859
 30
0.0
 11
14476.31284627116
 21
-11708.02658689126
 31
0.0
  0
LINE
  5
67CB2
330
18
100
AcDbEntity
  8
姿図
100
AcDbLine
 10
14737.45363903833
 20
-11894.65946051199
 30
0.0
 11
14517.52458881667
 21
-11707.92880530333
 31
0.0
  0
LINE
  5
67CB3
330
18
100
AcDbEntity
  8
姿図
100
AcDbLine
 10
14753.21321986695
 20
-11891.85967330376
 30
0.0
 11
14533.28416964528
 21
-11705.1290180951
 31
0.0
  0
LINE
  5
67CB4
330
18
100
AcDbEntity
  8
姿図
100
AcDbLine
 10
14753.21321986695
 20
-11889.09955573479
 30
0.0
 11
14533.28416964528
 21
-11702.36890052612
 31
0.0
  0
LINE
  5
67EC5
330
18
100
AcDbEntity
  8
姿図
100
AcDbLine
 10
14737.45363903833
 20
-11894.65946051199
 30
0.0
 11
14753.21321986695
 21
-11891.85967330376
 31
0.0
  0
LINE
  5
67EC6
330
18
100
AcDbEntity
  8
姿図
100
AcDbLine
 10
14697.62520037168
 20
-11895.93173559859
 30
0.0
 11
14731.80110027136
 21
-11889.86017516754
 31
0.0
  0
LINE
  5
67EC7
330
18
100
AcDbEntity
  8
姿図
100
AcDbLine
 10
14753.21321986695
 20
-11889.09955573479
 30
0.0
 11
14753.21321986695
 21
-11891.85967330376
 31
0.0
  0
TEXT
  5
68431
330
18
100
AcDbEntity
  8
文字
100
AcDbText
 10
14489.00483201889
 20
-12000.76023094428
 30
0.0
 40
29.997
  1
SX-LB146S/1200
100
AcDbText
  0
LINE
  5
68437
330
18
100
AcDbEntity
  8
姿図
100
AcDbLine
 10
14596.40800690875
 20
-11693.91467717913
 30
0.0
 11
14816.15111105406
 21
-11880.6783668607
 31
0.0
  0
LINE
  5
68438
330
18
100
AcDbEntity
  8
姿図
100
AcDbLine
 10
14831.32577618142
 20
-11870.75875365636
 30
0.0
 11
14610.58771132308
 21
-11683.26131976355
 31
0.0
  0
LINE
  5
68439
330
18
100
AcDbEntity
  8
姿図
100
AcDbLine
 10
14831.32577618144
 20
-11877.98249355196
 30
0.0
 11
14610.58771132308
 21
-11690.48505965914
 31
0.0
  0
LINE
  5
6843A
330
18
100
AcDbEntity
  8
姿図
100
AcDbLine
 10
14861.3934965509
 20
-11845.8138965655
 30
0.0
 11
14641.41779579264
 21
-11658.85251876164
 31
0.0
  0
LINE
  5
6843B
330
18
100
AcDbEntity
  8
姿図
100
AcDbLine
 10
14862.54303425813
 20
-11815.91731612261
 30
0.0
 11
14641.41779579264
 21
-11627.97892516303
 31
0.0
  0
LINE
  5
6843C
330
18
100
AcDbEntity
  8
姿図
100
AcDbLine
 10
14862.54303425813
 20
-11817.94718391506
 30
0.0
 11
14641.41779579264
 21
-11630.00879295548
 31
0.0
  0
LINE
  5
6843D
330
18
100
AcDbEntity
  8
姿図
100
AcDbLine
 10
14861.48649071059
 20
-11817.94718391506
 30
0.0
 11
14641.41779579264
 21
-11630.90676867133
 31
0.0
  0
LINE
  5
6843E
330
18
100
AcDbEntity
  8
姿図
100
AcDbLine
 10
14861.36536428283
 20
-11857.98632612115
 30
0.0
 11
14641.41779579264
 21
-11671.04885844728
 31
0.0
  0
LINE
  5
6843F
330
18
100
AcDbEntity
  8
姿図
100
AcDbLine
 10
14656.91599856239
 20
-11599.66878593601
 30
0.0
 11
14849.30648948587
 21
-11766.1849885685
 31
0.0
  0
LINE
  5
68440
330
18
100
AcDbEntity
  8
姿図
100
AcDbLine
 10
14656.91599856239
 20
-11589.16968533017
 30
0.0
 11
14849.30648948587
 21
-11755.68588796266
 31
0.0
  0
LINE
  5
68441
330
18
100
AcDbEntity
  8
姿図
100
AcDbLine
 10
14656.91599856239
 20
-11591.79446048163
 30
0.0
 11
14849.30648948587
 21
-11758.31066311412
 31
0.0
  0
LINE
  5
68442
330
18
100
AcDbEntity
  8
姿図
100
AcDbLine
 10
14861.24510649095
 20
-11826.0047665526
 30
0.0
 11
14641.41779579264
 21
-11639.16950817905
 31
0.0
  0
LINE
  5
68443
330
18
100
AcDbEntity
  8
姿図
100
AcDbLine
 10
14862.54303425813
 20
-11825.86366830562
 30
0.0
 11
14641.41779579264
 21
-11637.92527734604
 31
0.0
  0
LINE
  5
68444
330
18
100
AcDbEntity
  8
姿図
100
AcDbLine
 10
14862.54303425813
 20
-11830.07564397496
 30
0.0
 11
14641.41779579264
 21
-11642.13725301538
 31
0.0
  0
LINE
  5
68445
330
18
100
AcDbEntity
  8
姿図
100
AcDbLine
 10
14862.54303425813
 20
-11834.94732667684
 30
0.0
 11
14641.41779579264
 21
-11647.00893571726
 31
0.0
  0
LINE
  5
68446
330
18
100
AcDbEntity
  8
姿図
100
AcDbLine
 10
14862.54303425813
 20
-11839.81900937872
 30
0.0
 11
14641.41779579264
 21
-11651.88061841914
 31
0.0
  0
LINE
  5
68447
330
18
100
AcDbEntity
  8
姿図
100
AcDbLine
 10
14862.54303425813
 20
-11844.6906920806
 30
0.0
 11
14641.41779579264
 21
-11656.75230112102
 31
0.0
  0
LINE
  5
68448
330
18
100
AcDbEntity
  8
姿図
100
AcDbLine
 10
14862.54303425813
 20
-11849.56237478248
 30
0.0
 11
14641.41779579264
 21
-11661.6239838229
 31
0.0
  0
LINE
  5
68449
330
18
100
AcDbEntity
  8
姿図
100
AcDbLine
 10
14862.54303425813
 20
-11854.43405748436
 30
0.0
 11
14641.41779579264
 21
-11666.49566652478
 31
0.0
  0
LINE
  5
6844A
330
18
100
AcDbEntity
  8
姿図
100
AcDbLine
 10
14862.54303425813
 20
-11823.83380051317
 30
0.0
 11
14641.41779579264
 21
-11635.89540955359
 31
0.0
  0
LINE
  5
6844B
330
18
100
AcDbEntity
  8
姿図
100
AcDbLine
 10
14862.54303425813
 20
-11828.40100304618
 30
0.0
 11
14641.41779579264
 21
-11640.4626120866
 31
0.0
  0
LINE
  5
6844C
330
18
100
AcDbEntity
  8
姿図
100
AcDbLine
 10
14862.54303425813
 20
-11833.27268574806
 30
0.0
 11
14641.41779579264
 21
-11645.33429478848
 31
0.0
  0
LINE
  5
6844D
330
18
100
AcDbEntity
  8
姿図
100
AcDbLine
 10
14862.54303425813
 20
-11838.14436844994
 30
0.0
 11
14641.41779579264
 21
-11650.20597749036
 31
0.0
  0
LINE
  5
6844E
330
18
100
AcDbEntity
  8
姿図
100
AcDbLine
 10
14862.54303425813
 20
-11843.01605115183
 30
0.0
 11
14641.41779579264
 21
-11655.07766019225
 31
0.0
  0
LINE
  5
6844F
330
18
100
AcDbEntity
  8
姿図
100
AcDbLine
 10
14862.54303425813
 20
-11847.88773385371
 30
0.0
 11
14641.41779579264
 21
-11659.94934289413
 31
0.0
  0
LINE
  5
68450
330
18
100
AcDbEntity
  8
姿図
100
AcDbLine
 10
14862.54303425813
 20
-11852.75941655559
 30
0.0
 11
14641.41779579264
 21
-11664.82102559601
 31
0.0
  0
LINE
  5
68451
330
18
100
AcDbEntity
  8
姿図
100
AcDbLine
 10
14862.54303425813
 20
-11856.21019180275
 30
0.0
 11
14641.41779579264
 21
-11668.27180084317
 31
0.0
  0
LINE
  5
68452
330
18
100
AcDbEntity
  8
姿図
100
AcDbLine
 10
14862.54303425813
 20
-11863.87294271925
 30
0.0
 11
14641.41779579264
 21
-11675.93455175967
 31
0.0
  0
LINE
  5
68453
330
18
100
AcDbEntity
  8
姿図
100
AcDbLine
 10
14862.54303425813
 20
-11866.63306028823
 30
0.0
 11
14641.41779579264
 21
-11678.69466932865
 31
0.0
  0
LINE
  5
68454
330
18
100
AcDbEntity
  8
姿図
100
AcDbLine
 10
14696.82638089284
 20
-11792.29539923238
 30
0.0
 11
14497.35025643433
 21
-11622.75698685693
 31
0.0
  0
ARC
  5
68455
330
18
100
AcDbEntity
  8
姿図
  6
Continuous
370
     0
100
AcDbCircle
 10
14635.09749067153
 20
-11663.49687927313
 30
0.0
 40
1.2
100
AcDbArc
 50
175.2836838794859
 51
232.0202851621429
  0
ARC
  5
68456
330
18
100
AcDbEntity
  8
姿図
  6
Continuous
370
     0
100
AcDbCircle
 10
14635.09749067153
 20
-11663.49687927313
 30
0.0
 40
1.0
100
AcDbArc
 50
175.2836838795905
 51
232.0202851621429
  0
LINE
  5
68457
330
18
100
AcDbEntity
  8
姿図
100
AcDbLine
 10
14481.8324911412
 20
-11704.28587020172
 30
0.0
 11
14481.8324911412
 21
-11606.72402217555
 31
0.0
  0
LINE
  5
68458
330
18
100
AcDbEntity
  8
姿図
100
AcDbLine
 10
14478.48193199415
 20
-11660.16831666007
 30
0.0
 11
14478.48193199415
 21
-11664.84197559406
 31
0.0
  0
ELLIPSE
  5
68459
330
18
100
AcDbEntity
  8
姿図
100
AcDbEllipse
 10
14489.04980425749
 20
-11660.76488150635
 30
0.0
 11
0.0
 21
-3.508473521634005
 31
0.0
210
0.0
220
0.0
230
1.0
 40
0.6840581766403772
 41
0.0
 42
6.283185307179586
  0
ELLIPSE
  5
6845A
330
18
100
AcDbEntity
  8
姿図
100
AcDbEllipse
 10
14489.4498042575
 20
-11660.76488150635
 30
0.0
 11
1.557139847723761E-15
 21
3.508473521634053
 31
0.0
210
0.0
220
0.0
230
1.0
 40
0.6840581766403936
 41
0.0834300866107265
 42
3.058162566979068
  0
LINE
  5
6845B
330
18
100
AcDbEntity
  8
姿図
100
AcDbLine
 10
14496.8324911412
 20
-11699.58971069225
 30
0.0
 11
14496.8324911412
 21
-11622.37234464054
 31
0.0
  0
LINE
  5
6845C
330
18
100
AcDbEntity
  8
姿図
100
AcDbLine
 10
14497.35025643433
 20
-11699.22716753098
 30
0.0
 11
14497.35025643433
 21
-11622.75698685693
 31
0.0
  0
LINE
  5
6845D
330
18
100
AcDbEntity
  8
姿図
100
AcDbLine
 10
14638.06723664558
 20
-11662.21923142132
 30
0.0
 11
14639.88600287676
 21
-11663.88989785925
 31
0.0
  0
LINE
  5
6845E
330
18
100
AcDbEntity
  8
姿図
100
AcDbLine
 10
14641.41779579264
 20
-11678.69466932865
 30
0.0
 11
14641.41779579264
 21
-11630.90676867133
 31
0.0
  0
LINE
  5
6845F
330
18
100
AcDbEntity
  8
姿図
100
AcDbLine
 10
14619.41779579264
 20
-11677.81167156717
 30
0.0
 11
14619.41779579264
 21
-11597.59430551545
 31
0.0
  0
LINE
  5
68460
330
18
100
AcDbEntity
  8
姿図
  6
Continuous
370
     0
100
AcDbLine
 10
14641.41779579264
 20
-11665.89390553301
 30
0.0
 11
14635.08134251462
 21
-11660.94693741405
 31
0.0
  0
LINE
  5
68461
330
18
100
AcDbEntity
  8
姿図
100
AcDbLine
 10
14522.51733912236
 20
-11699.12103470978
 30
0.0
 11
14528.64889108192
 21
-11701.58437141822
 31
0.0
  0
LINE
  5
68462
330
18
100
AcDbEntity
  8
姿図
100
AcDbLine
 10
14522.89012738719
 20
-11698.19311827518
 30
0.0
 11
14533.28416964528
 21
-11702.36890052612
 31
0.0
  0
LINE
  5
68463
330
18
100
AcDbEntity
  8
姿図
100
AcDbLine
 10
14533.28416964528
 20
-11705.1290180951
 30
0.0
 11
14517.52458881667
 21
-11707.92880530333
 31
0.0
  0
LINE
  5
68464
330
18
100
AcDbEntity
  8
姿図
100
AcDbLine
 10
14528.86356146471
 20
-11703.15424896725
 30
0.0
 11
14520.87216503327
 21
-11704.57397007202
 31
0.0
  0
LINE
  5
68465
330
18
100
AcDbEntity
  8
姿図
100
AcDbLine
 10
14520.28470638564
 20
-11700.21471341508
 30
0.0
 11
14525.01140648505
 21
-11703.8386081741
 31
0.0
  0
LINE
  5
68466
330
18
100
AcDbEntity
  8
姿図
100
AcDbLine
 10
14517.52458881667
 20
-11700.70506540775
 30
0.0
 11
14476.31284627116
 21
-11708.02658689126
 31
0.0
  0
LINE
  5
68467
330
18
100
AcDbEntity
  8
姿図
100
AcDbLine
 10
14520.28470638564
 20
-11697.45459584611
 30
0.0
 11
14481.8324911412
 21
-11704.28587020172
 31
0.0
  0
LINE
  5
68468
330
18
100
AcDbEntity
  8
姿図
100
AcDbLine
 10
14496.8324911412
 20
-11699.58971069225
 30
0.0
 11
14481.8324911412
 21
-11702.25455365859
 31
0.0
  0
LINE
  5
68469
330
18
100
AcDbEntity
  8
姿図
100
AcDbLine
 10
14477.41481287487
 20
-11700.10350688513
 30
0.0
 11
14477.41481287487
 21
-11705.07069812542
 31
0.0
  0
ELLIPSE
  5
6846A
330
18
100
AcDbEntity
  8
姿図
100
AcDbEllipse
 10
14489.04980425749
 20
-11691.97662393945
 30
0.0
 11
0.0
 21
-3.508473521634005
 31
0.0
210
0.0
220
0.0
230
1.0
 40
0.6840581766403772
 41
0.0
 42
6.283185307179586
  0
ELLIPSE
  5
6846B
330
18
100
AcDbEntity
  8
姿図
100
AcDbEllipse
 10
14489.4498042575
 20
-11691.97662393945
 30
0.0
 11
1.557139847723761E-15
 21
3.508473521634053
 31
0.0
210
0.0
220
0.0
230
1.0
 40
0.6840581766403936
 41
0.0834300866107265
 42
3.058162566979068
  0
LINE
  5
6846C
330
18
100
AcDbEntity
  8
姿図
100
AcDbLine
 10
14477.76662261768
 20
-11668.21188019467
 30
0.0
 11
14477.76662261768
 21
-11669.53625727111
 31
0.0
  0
LINE
  5
6846D
330
18
100
AcDbEntity
  8
姿図
100
AcDbLine
 10
14477.76662261768
 20
-11696.78226937341
 30
0.0
 11
14477.76662261768
 21
-11697.34544602768
 31
0.0
  0
LINE
  5
6846E
330
18
100
AcDbEntity
  8
姿図
100
AcDbLine
 10
14481.8324911412
 20
-11677.46047179992
 30
0.0
 11
14478.13161250232
 21
-11678.11795582726
 31
0.0
  0
LINE
  5
6846F
330
18
100
AcDbEntity
  8
姿図
100
AcDbLine
 10
14481.8324911412
 20
-11667.48955345221
 30
0.0
 11
14477.76662261768
 21
-11668.21188019467
 31
0.0
  0
LINE
  5
68470
330
18
100
AcDbEntity
  8
姿図
100
AcDbLine
 10
14481.8324911412
 20
-11672.58878909804
 30
0.0
 11
14478.13161250232
 21
-11673.24627312538
 31
0.0
  0
LINE
  5
68471
330
18
100
AcDbEntity
  8
姿図
100
AcDbLine
 10
14481.8324911412
 20
-11682.3321545018
 30
0.0
 11
14478.13161250232
 21
-11682.98963852914
 31
0.0
  0
LINE
  5
68472
330
18
100
AcDbEntity
  8
姿図
100
AcDbLine
 10
14481.8324911412
 20
-11687.20383720368
 30
0.0
 11
14478.13161250232
 21
-11687.86132123102
 31
0.0
  0
LINE
  5
68473
330
18
100
AcDbEntity
  8
姿図
100
AcDbLine
 10
14481.8324911412
 20
-11692.07551990556
 30
0.0
 11
14478.13161250232
 21
-11692.7330039329
 31
0.0
  0
LINE
  5
68474
330
18
100
AcDbEntity
  8
姿図
100
AcDbLine
 10
14481.8324911412
 20
-11699.31867896143
 30
0.0
 11
14477.41481287487
 21
-11700.10350688513
 31
0.0
  0
LINE
  5
68475
330
18
100
AcDbEntity
  8
姿図
100
AcDbLine
 10
14497.35025643433
 20
-11699.22716753098
 30
0.0
 11
14496.8324911412
 21
-11699.58971069225
 31
0.0
  0
LINE
  5
68476
330
18
100
AcDbEntity
  8
姿図
100
AcDbLine
 10
14476.31284627116
 20
-11676.34085327987
 30
0.0
 11
14476.31284627116
 21
-11674.6662123511
 31
0.0
  0
LINE
  5
68477
330
18
100
AcDbEntity
  8
姿図
100
AcDbLine
 10
14476.31284627116
 20
-11671.46917057799
 30
0.0
 11
14476.31284627116
 21
-11669.79452964922
 31
0.0
  0
LINE
  5
68478
330
18
100
AcDbEntity
  8
姿図
100
AcDbLine
 10
14476.31284627116
 20
-11667.25719490866
 30
0.0
 11
14476.31284627116
 21
-11665.22732711621
 31
0.0
  0
LINE
  5
68479
330
18
100
AcDbEntity
  8
姿図
100
AcDbLine
 10
14476.31284627116
 20
-11697.60371840579
 30
0.0
 11
14476.31284627116
 21
-11699.37985272419
 31
0.0
  0
LINE
  5
6847A
330
18
100
AcDbEntity
  8
姿図
100
AcDbLine
 10
14476.31284627116
 20
-11695.8275840874
 30
0.0
 11
14476.31284627116
 21
-11694.15294315863
 31
0.0
  0
LINE
  5
6847B
330
18
100
AcDbEntity
  8
姿図
100
AcDbLine
 10
14476.31284627116
 20
-11690.95590138552
 30
0.0
 11
14476.31284627116
 21
-11689.28126045674
 31
0.0
  0
LINE
  5
6847C
330
18
100
AcDbEntity
  8
姿図
100
AcDbLine
 10
14476.31284627116
 20
-11686.08421868364
 30
0.0
 11
14476.31284627116
 21
-11684.40957775486
 31
0.0
  0
LINE
  5
6847D
330
18
100
AcDbEntity
  8
姿図
100
AcDbLine
 10
14476.31284627116
 20
-11681.21253598175
 30
0.0
 11
14476.31284627116
 21
-11679.53789505298
 31
0.0
  0
LINE
  5
6847E
330
18
100
AcDbEntity
  8
姿図
100
AcDbLine
 10
14476.31284627116
 20
-11708.02658689126
 30
0.0
 11
14476.31284627116
 21
-11705.26646932229
 31
0.0
  0
LINE
  5
6847F
330
18
100
AcDbEntity
  8
姿図
100
AcDbLine
 10
14481.8324911412
 20
-11704.28587020172
 30
0.0
 11
14476.31284627116
 21
-11705.26646932229
 31
0.0
  0
LINE
  5
68480
330
18
100
AcDbEntity
  8
姿図
100
AcDbLine
 10
14478.13161250232
 20
-11678.11795582726
 30
0.0
 11
14476.31284627116
 21
-11679.53789505298
 31
0.0
  0
LINE
  5
68481
330
18
100
AcDbEntity
  8
姿図
100
AcDbLine
 10
14476.31284627116
 20
-11676.34085327987
 30
0.0
 11
14478.13161250232
 21
-11678.11795582726
 31
0.0
  0
LINE
  5
68482
330
18
100
AcDbEntity
  8
姿図
100
AcDbLine
 10
14478.13161250232
 20
-11673.24627312538
 30
0.0
 11
14476.31284627116
 21
-11674.6662123511
 31
0.0
  0
LINE
  5
68483
330
18
100
AcDbEntity
  8
姿図
100
AcDbLine
 10
14476.31284627116
 20
-11667.25719490866
 30
0.0
 11
14477.76662261768
 21
-11668.21188019467
 31
0.0
  0
LINE
  5
68484
330
18
100
AcDbEntity
  8
姿図
100
AcDbLine
 10
14476.31284627116
 20
-11671.46917057799
 30
0.0
 11
14478.13161250232
 21
-11673.24627312538
 31
0.0
  0
LINE
  5
68485
330
18
100
AcDbEntity
  8
姿図
100
AcDbLine
 10
14476.31284627116
 20
-11695.8275840874
 30
0.0
 11
14477.76662261768
 21
-11696.78226937341
 31
0.0
  0
LINE
  5
68486
330
18
100
AcDbEntity
  8
姿図
100
AcDbLine
 10
14476.31284627116
 20
-11699.37985272419
 30
0.0
 11
14477.41481287487
 21
-11700.10350688513
 31
0.0
  0
LINE
  5
68487
330
18
100
AcDbEntity
  8
姿図
100
AcDbLine
 10
14478.13161250232
 20
-11692.7330039329
 30
0.0
 11
14476.31284627116
 21
-11694.15294315863
 31
0.0
  0
LINE
  5
68488
330
18
100
AcDbEntity
  8
姿図
100
AcDbLine
 10
14476.31284627116
 20
-11690.95590138552
 30
0.0
 11
14478.13161250232
 21
-11692.7330039329
 31
0.0
  0
LINE
  5
68489
330
18
100
AcDbEntity
  8
姿図
100
AcDbLine
 10
14478.13161250232
 20
-11687.86132123102
 30
0.0
 11
14476.31284627116
 21
-11689.28126045674
 31
0.0
  0
LINE
  5
6848A
330
18
100
AcDbEntity
  8
姿図
100
AcDbLine
 10
14478.13161250232
 20
-11682.98963852914
 30
0.0
 11
14476.31284627116
 21
-11684.40957775486
 31
0.0
  0
LINE
  5
6848B
330
18
100
AcDbEntity
  8
姿図
100
AcDbLine
 10
14476.31284627116
 20
-11681.21253598175
 30
0.0
 11
14478.13161250232
 21
-11682.98963852914
 31
0.0
  0
LINE
  5
6848C
330
18
100
AcDbEntity
  8
姿図
100
AcDbLine
 10
14476.31284627116
 20
-11686.08421868364
 30
0.0
 11
14478.13161250232
 21
-11687.86132123102
 31
0.0
  0
LINE
  5
6848D
330
18
100
AcDbEntity
  8
姿図
100
AcDbLine
 10
14481.8324911412
 20
-11675.3602541593
 30
0.0
 11
14476.31284627116
 21
-11676.34085327987
 31
0.0
  0
LINE
  5
6848E
330
18
100
AcDbEntity
  8
姿図
100
AcDbLine
 10
14481.8324911412
 20
-11678.55729593241
 30
0.0
 11
14476.31284627116
 21
-11679.53789505298
 31
0.0
  0
LINE
  5
6848F
330
18
100
AcDbEntity
  8
姿図
100
AcDbLine
 10
14481.8324911412
 20
-11664.24672799563
 30
0.0
 11
14476.31284627116
 21
-11665.22732711621
 31
0.0
  0
LINE
  5
68490
330
18
100
AcDbEntity
  8
姿図
100
AcDbLine
 10
14481.8324911412
 20
-11666.27659578809
 30
0.0
 11
14476.31284627116
 21
-11667.25719490866
 31
0.0
  0
LINE
  5
68491
330
18
100
AcDbEntity
  8
姿図
100
AcDbLine
 10
14481.8324911412
 20
-11668.81393052865
 30
0.0
 11
14476.31284627116
 21
-11669.79452964922
 31
0.0
  0
LINE
  5
68492
330
18
100
AcDbEntity
  8
姿図
100
AcDbLine
 10
14481.8324911412
 20
-11670.48857145742
 30
0.0
 11
14476.31284627116
 21
-11671.46917057799
 31
0.0
  0
LINE
  5
68493
330
18
100
AcDbEntity
  8
姿図
100
AcDbLine
 10
14481.8324911412
 20
-11673.68561323053
 30
0.0
 11
14476.31284627116
 21
-11674.6662123511
 31
0.0
  0
LINE
  5
68494
330
18
100
AcDbEntity
  8
姿図
100
AcDbLine
 10
14481.8324911412
 20
-11683.42897863429
 30
0.0
 11
14476.31284627116
 21
-11684.40957775486
 31
0.0
  0
LINE
  5
68495
330
18
100
AcDbEntity
  8
姿図
100
AcDbLine
 10
14481.8324911412
 20
-11685.10361956306
 30
0.0
 11
14476.31284627116
 21
-11686.08421868364
 31
0.0
  0
LINE
  5
68496
330
18
100
AcDbEntity
  8
姿図
100
AcDbLine
 10
14481.8324911412
 20
-11688.30066133617
 30
0.0
 11
14476.31284627116
 21
-11689.28126045674
 31
0.0
  0
LINE
  5
68497
330
18
100
AcDbEntity
  8
姿図
100
AcDbLine
 10
14481.8324911412
 20
-11689.97530226494
 30
0.0
 11
14476.31284627116
 21
-11690.95590138552
 31
0.0
  0
LINE
  5
68498
330
18
100
AcDbEntity
  8
姿図
100
AcDbLine
 10
14481.8324911412
 20
-11693.17234403805
 30
0.0
 11
14476.31284627116
 21
-11694.15294315863
 31
0.0
  0
LINE
  5
68499
330
18
100
AcDbEntity
  8
姿図
100
AcDbLine
 10
14481.8324911412
 20
-11694.84698496682
 30
0.0
 11
14476.31284627116
 21
-11695.8275840874
 31
0.0
  0
LINE
  5
6849A
330
18
100
AcDbEntity
  8
姿図
100
AcDbLine
 10
14481.8324911412
 20
-11696.62311928522
 30
0.0
 11
14476.31284627116
 21
-11697.60371840579
 31
0.0
  0
LINE
  5
6849B
330
18
100
AcDbEntity
  8
姿図
100
AcDbLine
 10
14481.8324911412
 20
-11698.39925360361
 30
0.0
 11
14476.31284627116
 21
-11699.37985272419
 31
0.0
  0
LINE
  5
6849C
330
18
100
AcDbEntity
  8
姿図
100
AcDbLine
 10
14481.8324911412
 20
-11698.39925360361
 30
0.0
 11
14476.31284627116
 21
-11699.37985272419
 31
0.0
  0
LINE
  5
6849D
330
18
100
AcDbEntity
  8
姿図
100
AcDbLine
 10
14481.8324911412
 20
-11680.23193686118
 30
0.0
 11
14476.31284627116
 21
-11681.21253598175
 31
0.0
  0
LINE
  5
6849E
330
18
100
AcDbEntity
  8
姿図
100
AcDbLine
 10
14522.51733912236
 20
-11699.12103470978
 30
0.0
 11
14522.89012738719
 21
-11698.19311827518
 31
0.0
  0
LINE
  5
6849F
330
18
100
AcDbEntity
  8
姿図
100
AcDbLine
 10
14517.52458881667
 20
-11700.70506540775
 30
0.0
 11
14517.52458881667
 21
-11707.92880530333
 31
0.0
  0
ARC
  5
684A0
330
18
100
AcDbEntity
  8
姿図
100
AcDbCircle
 10
14520.78470638564
 20
-11704.08167850703
 30
0.0
 40
0.5
100
AcDbArc
 50
180.0
 51
280.0738452396293
  0
LINE
  5
684A1
330
18
100
AcDbEntity
  8
姿図
100
AcDbLine
 10
14520.28470638564
 20
-11697.45459584611
 30
0.0
 11
14520.28470638564
 21
-11704.08167850703
 31
0.0
  0
LINE
  5
684A2
330
18
100
AcDbEntity
  8
姿図
100
AcDbLine
 10
14641.41779579264
 20
-11670.04793516157
 30
0.0
 11
14638.06723664558
 21
-11670.64318275999
 31
0.0
  0
LINE
  5
684A3
330
18
100
AcDbEntity
  8
姿図
100
AcDbLine
 10
14641.41779579264
 20
-11664.82102559601
 30
0.0
 11
14640.29831387041
 21
-11665.01990849776
 31
0.0
  0
LINE
  5
684A4
330
18
100
AcDbEntity
  8
姿図
100
AcDbLine
 10
14641.41779579264
 20
-11670.96736051938
 30
0.0
 11
14639.1692032493
 21
-11671.36683692093
 31
0.0
  0
LINE
  5
684A5
330
18
100
AcDbEntity
  8
姿図
100
AcDbLine
 10
14641.41779579264
 20
-11670.04793516157
 30
0.0
 11
14638.06723664558
 21
-11670.64318275999
 31
0.0
  0
LINE
  5
684A6
330
18
100
AcDbEntity
  8
姿図
100
AcDbLine
 10
14641.41779579264
 20
-11663.72420146352
 30
0.0
 11
14639.88600287675
 21
-11663.9963339687
 31
0.0
  0
LINE
  5
684A7
330
18
100
AcDbEntity
  8
姿図
100
AcDbLine
 10
14641.41779579264
 20
-11678.69466932865
 30
0.0
 11
14610.58771132308
 21
-11683.26131976355
 31
0.0
  0
LINE
  5
684A8
330
18
100
AcDbEntity
  8
姿図
  6
Continuous
370
     0
100
AcDbLine
 10
14641.41779579264
 20
-11669.95364111791
 30
0.0
 11
14634.35903173494
 21
-11664.44275368285
 31
0.0
  0
LINE
  5
684A9
330
18
100
AcDbEntity
  8
姿図
  6
Continuous
370
     0
100
AcDbLine
 10
14641.41779579264
 20
-11669.69990764386
 30
0.0
 11
14634.48210822437
 21
-11664.2851079479
 31
0.0
  0
LINE
  5
684AA
330
18
100
AcDbEntity
  8
姿図
100
AcDbLine
 10
14638.06723664558
 20
-11668.86704844159
 30
0.0
 11
14638.06723664558
 21
-11670.64318275999
 31
0.0
  0
LINE
  5
684AB
330
18
100
AcDbEntity
  8
姿図
100
AcDbLine
 10
14638.06723664558
 20
-11670.64318275999
 30
0.0
 11
14639.1692032493
 21
-11671.36683692093
 31
0.0
  0
LINE
  5
684AC
330
18
100
AcDbEntity
  8
姿図
100
AcDbLine
 10
14636.41779579264
 20
-11676.82283274845
 30
0.0
 11
14636.41779579264
 21
-11666.05006296314
 31
0.0
  0
LINE
  5
684AD
330
18
100
AcDbEntity
  8
姿図
100
AcDbLine
 10
14639.66290252015
 20
-11668.58356850943
 30
0.0
 11
14638.06723664558
 21
-11668.8670484416
 31
0.0
  0
LINE
  5
684AE
330
18
100
AcDbEntity
  8
姿図
100
AcDbLine
 10
14639.88600287675
 20
-11663.88989785924
 30
0.0
 11
14639.88600287675
 21
-11664.6980108602
 31
0.0
  0
ELLIPSE
  5
684AF
330
18
100
AcDbEntity
  8
姿図
100
AcDbEllipse
 10
14626.85168271131
 20
-11667.49526616976
 30
0.0
 11
0.0
 21
-3.508473521634005
 31
0.0
210
0.0
220
0.0
230
1.0
 40
0.6840581766403772
 41
0.0
 42
6.283185307179586
  0
ELLIPSE
  5
684B0
330
18
100
AcDbEntity
  8
姿図
100
AcDbEllipse
 10
14627.25168271131
 20
-11667.49526616976
 30
0.0
 11
1.557139847723761E-15
 21
3.508473521634053
 31
0.0
210
0.0
220
0.0
230
1.0
 40
0.6840581766403936
 41
0.0834300866107265
 42
3.058162566979068
  0
LINE
  5
684B1
330
18
100
AcDbEntity
  8
姿図
100
AcDbLine
 10
14610.58771132308
 20
-11690.48505965914
 30
0.0
 11
14596.40800690875
 21
-11693.91467717913
 31
0.0
  0
LINE
  5
684B2
330
18
100
AcDbEntity
  8
姿図
100
AcDbLine
 10
14596.40800690875
 20
-11693.91467717913
 30
0.0
 11
14600.21231675983
 21
-11688.35768795394
 31
0.0
  0
LINE
  5
684B3
330
18
100
AcDbEntity
  8
姿図
100
AcDbLine
 10
14600.52430161607
 20
-11687.90196890044
 30
0.0
 11
14602.44491750294
 21
-11685.09650819749
 31
0.0
  0
LINE
  5
684B4
330
18
100
AcDbEntity
  8
姿図
100
AcDbLine
 10
14605.92509833997
 20
-11690.14196382904
 30
0.0
 11
14602.81280637871
 21
-11687.66716174196
 31
0.0
  0
LINE
  5
684B5
330
18
100
AcDbEntity
  8
姿図
100
AcDbLine
 10
14608.58771132308
 20
-11688.80905551152
 30
0.0
 11
14605.7683333594
 21
-11690.22044062902
 31
0.0
  0
LINE
  5
684B6
330
18
100
AcDbEntity
  8
姿図
100
AcDbLine
 10
14608.58771132308
 20
-11680.85651459009
 30
0.0
 11
14608.58771132308
 21
-11688.80905551152
 31
0.0
  0
ARC
  5
684B7
330
18
100
AcDbEntity
  8
姿図
100
AcDbCircle
 10
14602.50161273505
 20
-11688.26164811536
 30
0.0
 40
0.5
100
AcDbArc
 50
51.50932280862754
 51
100.0738452396294
  0
LINE
  5
684B8
330
18
100
AcDbEntity
  8
姿図
100
AcDbLine
 10
14605.7683333594
 20
-11690.22044062902
 30
0.0
 11
14602.81280637871
 21
-11687.87029339628
 31
0.0
  0
ARC
  5
684B9
330
18
100
AcDbEntity
  8
姿図
100
AcDbCircle
 10
14602.50161273505
 20
-11688.05851646104
 30
0.0
 40
0.5
100
AcDbArc
 50
51.50932280862754
 51
100.0738452396294
  0
LINE
  5
684BA
330
18
100
AcDbEntity
  8
姿図
100
AcDbLine
 10
14602.81280637871
 20
-11687.87029339628
 30
0.0
 11
14602.81280637871
 21
-11687.66716174196
 31
0.0
  0
LINE
  5
684BB
330
18
100
AcDbEntity
  8
姿図
100
AcDbLine
 10
14603.1417327535
 20
-11690.68707250569
 30
0.0
 11
14601.23383754483
 21
-11691.02602191417
 31
0.0
  0
LINE
  5
684BC
330
18
100
AcDbEntity
  8
姿図
100
AcDbLine
 10
14605.7683333594
 20
-11690.22044062902
 30
0.0
 11
14603.1417327535
 21
-11690.68707250569
 31
0.0
  0
LINE
  5
684BD
330
18
100
AcDbEntity
  8
姿図
100
AcDbLine
 10
14602.57368791315
 20
-11687.56373856269
 30
0.0
 11
14603.61262682579
 21
-11686.04615125534
 31
0.0
  0
LINE
  5
684BE
330
18
100
AcDbEntity
  8
姿図
100
AcDbLine
 10
14603.6126268258
 20
-11686.04615125534
 30
0.0
 11
14604.07955974363
 21
-11688.67444637668
 31
0.0
  0
LINE
  5
684BF
330
18
100
AcDbEntity
  8
姿図
100
AcDbLine
 10
14602.44491750294
 20
-11685.09650819749
 30
0.0
 11
14603.61262682579
 21
-11686.04615125534
 31
0.0
  0
ARC
  5
684C0
330
18
100
AcDbEntity
  8
姿図
100
AcDbCircle
 10
14600.24538103526
 20
-11688.25621835177
 30
0.0
 40
0.1
100
AcDbArc
 50
100.0738452396294
 51
231.5093228086275
  0
LINE
  5
684C1
330
18
100
AcDbEntity
  8
姿図
100
AcDbLine
 10
14600.14844010455
 20
-11687.96874302746
 30
0.0
 11
14600.14844010455
 21
-11688.2316733736
 31
0.0
  0
LINE
  5
684C2
330
18
100
AcDbEntity
  8
姿図
100
AcDbLine
 10
14602.41415408743
 20
-11687.76935655037
 30
0.0
 11
14600.22788930574
 21
-11688.15776003877
 31
0.0
  0
LINE
  5
684C3
330
18
100
AcDbEntity
  8
姿図
100
AcDbLine
 10
14602.41415408743
 20
-11687.56622489606
 30
0.0
 11
14600.14844010455
 21
-11687.96874302746
 31
0.0
  0
LINE
  5
684C4
330
18
100
AcDbEntity
  8
姿図
100
AcDbLine
 10
14603.1417327535
 20
-11690.68707250569
 30
0.0
 11
14600.18314230653
 21
-11688.33448929558
 31
0.0
  0
ARC
  5
684C5
330
18
100
AcDbEntity
  8
姿図
100
AcDbCircle
 10
14601.14637889721
 20
-11690.53373034919
 30
0.0
 40
0.5
100
AcDbArc
 50
145.6044933459079
 51
280.0738452396293
  0
LINE
  5
684C6
330
18
100
AcDbEntity
  8
姿図
100
AcDbLine
 10
14600.73379999594
 20
-11690.25127920256
 30
0.0
 11
14601.38938620381
 21
-11689.29365859965
 31
0.0
  0
LINE
  5
684C7
330
18
100
AcDbEntity
  8
姿図
100
AcDbLine
 10
14610.58771132308
 20
-11683.26131976355
 30
0.0
 11
14610.58771132308
 21
-11690.48505965914
 31
0.0
  0
LINE
  5
684C8
330
18
100
AcDbEntity
  8
姿図
100
AcDbLine
 10
14636.41779579264
 20
-11674.79151620532
 30
0.0
 11
14619.41779579264
 21
-11677.81167156717
 31
0.0
  0
LINE
  5
684C9
330
18
100
AcDbEntity
  8
姿図
100
AcDbLine
 10
14636.41779579264
 20
-11676.82283274845
 30
0.0
 11
14608.58771132308
 21
-11680.85651459009
 31
0.0
  0
LINE
  5
684CA
330
18
100
AcDbEntity
  8
姿図
100
AcDbLine
 10
14533.28416964528
 20
-11702.36890052612
 30
0.0
 11
14533.28416964528
 21
-11705.1290180951
 31
0.0
  0
ARC
  5
684CB
330
18
100
AcDbEntity
  8
姿図
100
AcDbCircle
 10
14528.27610281709
 20
-11702.51228785283
 30
0.0
 40
1.0
100
AcDbArc
 50
0.0
 51
68.11232009500681
  0
ARC
  5
684CC
330
18
100
AcDbEntity
  8
姿図
100
AcDbCircle
 10
14528.77610281709
 20
-11702.66195740226
 30
0.0
 40
0.5
100
AcDbArc
 50
280.0738452396293
 51
0.0
  0
LINE
  5
684CD
330
18
100
AcDbEntity
  8
姿図
100
AcDbLine
 10
14529.27610281709
 20
-11702.51228785283
 30
0.0
 11
14529.27610281709
 21
-11702.66195740226
 31
0.0
  0
LINE
  5
684CE
330
18
100
AcDbEntity
  8
姿図
100
AcDbLine
 10
14641.41779579264
 20
-11573.3727037335
 30
0.0
 11
14481.8324911412
 21
-11606.72402217555
 31
0.0
  0
LINE
  5
684CF
330
18
100
AcDbEntity
  8
姿図
100
AcDbLine
 10
14619.41779579264
 20
-11597.59430551545
 30
0.0
 11
14496.8324911412
 21
-11622.37234464054
 31
0.0
  0
LINE
  5
684D0
330
18
100
AcDbEntity
  8
姿図
100
AcDbLine
 10
14619.49988069094
 20
-11598.05634905423
 30
0.0
 11
14497.35025643433
 21
-11622.75698685693
 31
0.0
  0
LINE
  5
684D1
330
18
100
AcDbEntity
  8
姿図
100
AcDbLine
 10
14481.8324911412
 20
-11659.57306906165
 30
0.0
 11
14477.76662261768
 21
-11660.29539580412
 31
0.0
  0
LINE
  5
684D2
330
18
100
AcDbEntity
  8
姿図
100
AcDbLine
 10
14476.31284627116
 20
-11659.3407105181
 30
0.0
 11
14476.31284627116
 21
-11657.31084272565
 31
0.0
  0
LINE
  5
684D3
330
18
100
AcDbEntity
  8
姿図
100
AcDbLine
 10
14476.31284627116
 20
-11659.3407105181
 30
0.0
 11
14477.76662261768
 21
-11660.29539580412
 31
0.0
  0
LINE
  5
684D4
330
18
100
AcDbEntity
  8
姿図
100
AcDbLine
 10
14481.8324911412
 20
-11658.36011139753
 30
0.0
 11
14476.31284627116
 21
-11659.3407105181
 31
0.0
  0
LINE
  5
684D5
330
18
100
AcDbEntity
  8
姿図
100
AcDbLine
 10
14481.8324911412
 20
-11656.33024360508
 30
0.0
 11
14476.31284627116
 21
-11657.31084272565
 31
0.0
  0
LINE
  5
684D7
330
18
100
AcDbEntity
  8
姿図
100
AcDbLine
 10
14641.41779579264
 20
-11640.4626120866
 30
0.0
 11
14638.06723664558
 21
-11641.05785968502
 31
0.0
  0
LINE
  5
684D8
330
18
100
AcDbEntity
  8
姿図
100
AcDbLine
 10
14641.41779579264
 20
-11642.13725301537
 30
0.0
 11
14638.06723664558
 21
-11642.73250061379
 31
0.0
  0
LINE
  5
684D9
330
18
100
AcDbEntity
  8
姿図
100
AcDbLine
 10
14641.41779579264
 20
-11650.20597749036
 30
0.0
 11
14638.06723664558
 21
-11650.80122508879
 31
0.0
  0
LINE
  5
684DA
330
18
100
AcDbEntity
  8
姿図
100
AcDbLine
 10
14641.41779579264
 20
-11651.88061841913
 30
0.0
 11
14638.06723664558
 21
-11652.47586601755
 31
0.0
  0
LINE
  5
684DB
330
18
100
AcDbEntity
  8
姿図
100
AcDbLine
 10
14641.41779579264
 20
-11655.07766019224
 30
0.0
 11
14638.06723664558
 21
-11655.67290779067
 31
0.0
  0
LINE
  5
684DC
330
18
100
AcDbEntity
  8
姿図
100
AcDbLine
 10
14641.41779579264
 20
-11656.75230112102
 30
0.0
 11
14638.06723664558
 21
-11657.34754871944
 31
0.0
  0
LINE
  5
684DD
330
18
100
AcDbEntity
  8
姿図
100
AcDbLine
 10
14641.41779579264
 20
-11659.94934289413
 30
0.0
 11
14638.06723664558
 21
-11660.54459049255
 31
0.0
  0
LINE
  5
684DE
330
18
100
AcDbEntity
  8
姿図
100
AcDbLine
 10
14641.41779579264
 20
-11661.6239838229
 30
0.0
 11
14638.06723664558
 21
-11662.21923142132
 31
0.0
  0
LINE
  5
684DF
330
18
100
AcDbEntity
  8
姿図
100
AcDbLine
 10
14641.41779579264
 20
-11630.90676867133
 30
0.0
 11
14639.17372018195
 21
-11631.3054426118
 31
0.0
  0
LINE
  5
684E0
330
18
100
AcDbEntity
  8
姿図
100
AcDbLine
 10
14641.41779579264
 20
-11630.00879295548
 30
0.0
 11
14638.06723664558
 21
-11630.60404055391
 31
0.0
  0
LINE
  5
684E1
330
18
100
AcDbEntity
  8
姿図
100
AcDbLine
 10
14641.41779579264
 20
-11627.97892516303
 30
0.0
 11
14638.06723664558
 21
-11628.57417276145
 31
0.0
  0
LINE
  5
684E2
330
18
100
AcDbEntity
  8
姿図
100
AcDbLine
 10
14641.41779579264
 20
-11645.33429478848
 30
0.0
 11
14640.29831387041
 21
-11645.53317769024
 31
0.0
  0
LINE
  5
684E3
330
18
100
AcDbEntity
  8
姿図
100
AcDbLine
 10
14641.41779579264
 20
-11635.89540955359
 30
0.0
 11
14638.06723664558
 21
-11636.49065715201
 31
0.0
  0
LINE
  5
684E4
330
18
100
AcDbEntity
  8
姿図
100
AcDbLine
 10
14641.41779579264
 20
-11658.85251876164
 30
0.0
 11
14639.88600287675
 21
-11659.12465126682
 31
0.0
  0
LINE
  5
684E5
330
18
100
AcDbEntity
  8
姿図
100
AcDbLine
 10
14641.41779579264
 20
-11653.98083605976
 30
0.0
 11
14639.88600287675
 21
-11654.25296856494
 31
0.0
  0
LINE
  5
684E6
330
18
100
AcDbEntity
  8
姿図
100
AcDbLine
 10
14641.41779579264
 20
-11644.23747065599
 30
0.0
 11
14639.88600287675
 21
-11644.50960316118
 31
0.0
  0
LINE
  5
684E7
330
18
100
AcDbEntity
  8
姿図
100
AcDbLine
 10
14641.41779579264
 20
-11639.13823501016
 30
0.0
 11
14639.17372018195
 21
-11639.53690895064
 31
0.0
  0
LINE
  5
684E8
330
18
100
AcDbEntity
  8
姿図
100
AcDbLine
 10
14641.41779579264
 20
-11637.92527734604
 30
0.0
 11
14638.06723664558
 21
-11638.52052494446
 31
0.0
  0
LINE
  5
684E9
330
18
100
AcDbEntity
  8
姿図
  6
Continuous
370
     0
100
AcDbLine
 10
14641.41779579264
 20
-11646.40717472549
 30
0.0
 11
14635.08134251462
 21
-11641.46020660653
 31
0.0
  0
LINE
  5
684EA
330
18
100
AcDbEntity
  8
姿図
  6
Continuous
370
     0
100
AcDbLine
 10
14641.41779579264
 20
-11650.21317683634
 30
0.0
 11
14634.48210822437
 21
-11644.79837714037
 31
0.0
  0
LINE
  5
684EB
330
18
100
AcDbEntity
  8
姿図
  6
Continuous
370
     0
100
AcDbLine
 10
14641.41779579264
 20
-11650.46691031039
 30
0.0
 11
14634.35903173494
 21
-11644.95602287533
 31
0.0
  0
LINE
  5
684EC
330
18
100
AcDbEntity
  8
姿図
100
AcDbLine
 10
14636.41779579264
 20
-11642.50359657072
 30
0.0
 11
14636.41779579264
 21
-11574.26098472228
 31
0.0
  0
LINE
  5
684ED
330
18
100
AcDbEntity
  8
姿図
100
AcDbLine
 10
14638.06723664558
 20
-11657.34754871944
 30
0.0
 11
14638.06723664558
 21
-11655.67290779067
 31
0.0
  0
LINE
  5
684EE
330
18
100
AcDbEntity
  8
姿図
100
AcDbLine
 10
14638.06723664558
 20
-11662.21923142132
 30
0.0
 11
14638.06723664558
 21
-11660.54459049255
 31
0.0
  0
LINE
  5
684EF
330
18
100
AcDbEntity
  8
姿図
100
AcDbLine
 10
14638.06723664558
 20
-11642.73250061379
 30
0.0
 11
14638.06723664558
 21
-11641.05785968502
 31
0.0
  0
LINE
  5
684F0
330
18
100
AcDbEntity
  8
姿図
100
AcDbLine
 10
14638.06723664558
 20
-11652.47586601756
 30
0.0
 11
14638.06723664558
 21
-11650.80122508878
 31
0.0
  0
LINE
  5
684F1
330
18
100
AcDbEntity
  8
姿図
100
AcDbLine
 10
14638.06723664558
 20
-11638.52052494446
 30
0.0
 11
14639.17372018195
 21
-11639.53690895064
 31
0.0
  0
LINE
  5
684F2
330
18
100
AcDbEntity
  8
姿図
100
AcDbLine
 10
14638.06723664558
 20
-11642.73250061379
 30
0.0
 11
14639.88600287675
 21
-11644.50960316118
 31
0.0
  0
LINE
  5
684F3
330
18
100
AcDbEntity
  8
姿図
100
AcDbLine
 10
14639.88600287675
 20
-11649.38128586306
 30
0.0
 11
14639.88600287675
 21
-11650.47810999555
 31
0.0
  0
LINE
  5
684F4
330
18
100
AcDbEntity
  8
姿図
100
AcDbLine
 10
14639.88600287675
 20
-11654.25296856494
 30
0.0
 11
14639.88600287675
 21
-11655.34979269743
 31
0.0
  0
LINE
  5
684F5
330
18
100
AcDbEntity
  8
姿図
100
AcDbLine
 10
14639.17372018195
 20
-11639.53690895064
 30
0.0
 11
14639.17372018195
 21
-11640.86128602707
 31
0.0
  0
LINE
  5
684F6
330
18
100
AcDbEntity
  8
姿図
100
AcDbLine
 10
14639.88600287675
 20
-11659.01821515737
 30
0.0
 11
14639.88600287675
 21
-11660.22147539931
 31
0.0
  0
LINE
  5
684F7
330
18
100
AcDbEntity
  8
姿図
100
AcDbLine
 10
14638.06723664558
 20
-11652.47586601755
 30
0.0
 11
14639.88600287676
 21
-11654.14653245549
 31
0.0
  0
LINE
  5
684F8
330
18
100
AcDbEntity
  8
姿図
100
AcDbLine
 10
14638.06723664558
 20
-11657.34754871944
 30
0.0
 11
14639.88600287676
 21
-11659.01821515737
 31
0.0
  0
LINE
  5
684F9
330
18
100
AcDbEntity
  8
姿図
100
AcDbLine
 10
14639.2703007892
 20
-11631.28828446834
 30
0.0
 11
14639.2703007892
 21
-11636.2769253506
 31
0.0
  0
LINE
  5
684FA
330
18
100
AcDbEntity
  8
姿図
100
AcDbLine
 10
14638.06723664558
 20
-11630.60404055391
 30
0.0
 11
14639.17372018195
 21
-11631.3054426118
 31
0.0
  0
LINE
  5
684FB
330
18
100
AcDbEntity
  8
姿図
100
AcDbLine
 10
14638.06723664558
 20
-11630.6040405539
 30
0.0
 11
14638.06723664558
 21
-11628.57417276145
 31
0.0
  0
LINE
  5
684FC
330
18
100
AcDbEntity
  8
姿図
100
AcDbLine
 10
14636.41779579264
 20
-11661.99032737824
 30
0.0
 11
14636.41779579264
 21
-11646.56333215562
 31
0.0
  0
LINE
  5
684FD
330
18
100
AcDbEntity
  8
姿図
100
AcDbLine
 10
14639.88600287675
 20
-11644.50960316118
 30
0.0
 11
14639.88600287675
 21
-11645.21128005267
 31
0.0
  0
LINE
  5
684FE
330
18
100
AcDbEntity
  8
姿図
100
AcDbLine
 10
14639.85819033617
 20
-11649.24930195243
 30
0.0
 11
14639.88600287676
 21
-11649.27484975361
 31
0.0
  0
LINE
  5
684FF
330
18
100
AcDbEntity
  8
姿図
100
AcDbLine
 10
14640.00106283802
 20
-11649.36084474783
 30
0.0
 11
14639.88600287675
 21
-11649.38128586306
 31
0.0
  0
LINE
  5
68500
330
18
100
AcDbEntity
  8
姿図
100
AcDbLine
 10
14638.06723664558
 20
-11638.52052494446
 30
0.0
 11
14638.06723664558
 21
-11636.49065715201
 31
0.0
  0
ELLIPSE
  5
68501
330
18
100
AcDbEntity
  8
姿図
100
AcDbEllipse
 10
14627.65168271131
 20
-11636.28352373667
 30
0.0
 11
1.557139847723761E-15
 21
3.508473521634053
 31
0.0
210
0.0
220
0.0
230
1.0
 40
0.6840581766403936
 41
0.0834300866107265
 42
3.058162566979068
  0
ELLIPSE
  5
68502
330
18
100
AcDbEntity
  8
姿図
100
AcDbEllipse
 10
14627.25168271131
 20
-11636.28352373667
 30
0.0
 11
0.0
 21
-3.508473521634005
 31
0.0
210
0.0
220
0.0
230
1.0
 40
0.6840581766403772
 41
0.0
 42
6.283185307179586
  0
ARC
  5
68503
330
18
100
AcDbEntity
  8
姿図
  6
Continuous
370
     0
100
AcDbCircle
 10
14634.65880742414
 20
-11661.35455621572
 30
0.0
 40
0.5871021973724699
100
AcDbArc
 50
43.97061442796326
 51
173.0481439441934
  0
ARC
  5
68504
330
18
100
AcDbEntity
  8
姿図
  6
Continuous
370
     0
100
AcDbCircle
 10
14634.77365129104
 20
-11661.34105175144
 30
0.0
 40
0.5
100
AcDbArc
 50
52.02028516214293
 51
175.2836838794859
  0
ARC
  5
68505
330
18
100
AcDbEntity
  8
姿図
  6
Continuous
370
     0
100
AcDbCircle
 10
14635.09749067153
 20
-11644.0101484656
 30
0.0
 40
1.0
100
AcDbArc
 50
175.2836838795905
 51
232.0202851621429
  0
ARC
  5
68506
330
18
100
AcDbEntity
  8
姿図
  6
Continuous
370
     0
100
AcDbCircle
 10
14634.77365129104
 20
-11641.85432094392
 30
0.0
 40
0.5
100
AcDbArc
 50
52.02028516214293
 51
175.2836838794859
  0
LINE
  5
68507
330
18
100
AcDbEntity
  8
姿図
  6
Continuous
370
     0
100
AcDbLine
 10
14634.10087665875
 20
-11643.92792614785
 30
0.0
 11
14634.27534428466
 21
-11641.81320978504
 31
0.0
  0
ARC
  5
68508
330
18
100
AcDbEntity
  8
姿図
  6
Continuous
370
     0
100
AcDbCircle
 10
14635.09749067153
 20
-11644.0101484656
 30
0.0
 40
1.2
100
AcDbArc
 50
175.2836838794859
 51
232.0202851621429
  0
LINE
  5
68509
330
18
100
AcDbEntity
  8
姿図
  6
Continuous
370
     0
100
AcDbLine
 10
14633.9015538562
 20
-11643.9114816843
 30
0.0
 11
14634.0760214821
 21
-11641.79676532149
 31
0.0
  0
ARC
  5
6850A
330
18
100
AcDbEntity
  8
姿図
  6
Continuous
370
     0
100
AcDbCircle
 10
14634.65880742414
 20
-11641.86782540819
 30
0.0
 40
0.5871021973724699
100
AcDbArc
 50
43.97061442796326
 51
173.0481439441934
  0
LINE
  5
6850B
330
18
100
AcDbEntity
  8
姿図
100
AcDbLine
 10
14656.91599856239
 20
-11641.15113160824
 30
0.0
 11
14656.91599856239
 21
-11586.54491017871
 31
0.0
  0
LINE
  5
6850C
330
18
100
AcDbEntity
  8
姿図
100
AcDbLine
 10
14641.41779579264
 20
-11630.90676867133
 30
0.0
 11
14641.41779579264
 21
-11573.3727037335
 31
0.0
  0
LINE
  5
6850D
330
18
100
AcDbEntity
  8
姿図
100
AcDbLine
 10
14641.41779579264
 20
-11573.3727037335
 30
0.0
 11
14656.91599856239
 21
-11586.54491017871
 31
0.0
  0
LINE
  5
6850E
330
18
100
AcDbEntity
  8
姿図
  6
Continuous
370
     0
100
AcDbLine
 10
14633.9015538562
 20
-11663.39821249182
 30
0.0
 11
14634.0760214821
 21
-11661.28349612901
 31
0.0
  0
LINE
  5
6850F
330
18
100
AcDbEntity
  8
姿図
  6
Continuous
370
     0
100
AcDbLine
 10
14634.10087665875
 20
-11663.41465695537
 30
0.0
 11
14634.27534428465
 21
-11661.29994059256
 31
0.0
  0
LINE
  5
6853C
330
18
100
AcDbEntity
  8
姿図
100
AcDbLine
 10
14712.34414618597
 20
-11854.39968821602
 30
0.0
 11
14712.34414618597
 21
-11792.4509257821
 31
0.0
  0
LINE
  5
6853D
330
18
100
AcDbEntity
  8
姿図
100
AcDbLine
 10
14711.82638089284
 20
-11853.9600798408
 30
0.0
 11
14711.82638089284
 21
-11792.01086757454
 31
0.0
  0
LINE
  5
6853E
330
18
100
AcDbEntity
  8
姿図
100
AcDbLine
 10
14696.82638089284
 20
-11792.29539923238
 30
0.0
 11
14696.82638089284
 21
-11841.22433699416
 31
0.0
  0
LINE
  5
6853F
330
18
100
AcDbEntity
  8
姿図
100
AcDbLine
 10
14696.82638089284
 20
-11792.29539923238
 30
0.0
 11
14709.50994420651
 21
-11790.04208560008
 31
0.0
  0
LINE
  5
68540
330
18
100
AcDbEntity
  8
姿図
100
AcDbLine
 10
14831.32577618142
 20
-11872.17899966249
 30
0.0
 11
14862.54303425813
 21
-11866.63306028823
 31
0.0
  0
LINE
  5
68541
330
18
100
AcDbEntity
  8
姿図
100
AcDbLine
 10
14831.32577618142
 20
-11870.75875365638
 30
0.0
 11
14831.32577618142
 21
-11877.98249355196
 31
0.0
  0
LINE
  5
68542
330
18
100
AcDbEntity
  8
姿図
100
AcDbLine
 10
14831.32577618142
 20
-11877.98249355196
 30
0.0
 11
14816.15111105407
 21
-11880.6783668607
 31
0.0
  0
LINE
  5
68543
330
18
100
AcDbEntity
  8
姿図
100
AcDbLine
 10
14849.30648948587
 20
-11752.94882391598
 30
0.0
 11
14860.21328587145
 21
-11762.21870996542
 31
0.0
  0
LINE
  5
68544
330
18
100
AcDbEntity
  8
姿図
100
AcDbLine
 10
14849.30648948587
 20
-11752.94882391598
 30
0.0
 11
14846.47403333503
 21
-11753.27853159236
 31
0.0
  0
LINE
  5
68545
330
18
100
AcDbEntity
  8
姿図
100
AcDbLine
 10
14849.30648948587
 20
-11804.66733424074
 30
0.0
 11
14849.30648948587
 21
-11752.94882391598
 31
0.0
  0
LINE
  5
68546
330
18
100
AcDbEntity
  8
姿図
100
AcDbLine
 10
14862.54303425813
 20
-11866.63306028823
 30
0.0
 11
14862.54303425813
 21
-11863.87294271925
 31
0.0
  0
LINE
  5
68547
330
18
100
AcDbEntity
  8
姿図
100
AcDbLine
 10
14860.21328587145
 20
-11762.21870996542
 30
0.0
 11
14860.21328587146
 21
-11813.93722029018
 31
0.0
  0
LINE
  5
68548
330
18
100
AcDbEntity
  8
姿図
100
AcDbLine
 10
14862.54303425813
 20
-11817.94718391506
 30
0.0
 11
14861.48649071059
 21
-11817.94718391506
 31
0.0
  0
LINE
  5
68549
330
18
100
AcDbEntity
  8
姿図
100
AcDbLine
 10
14862.54303425813
 20
-11817.94718391506
 30
0.0
 11
14862.54303425813
 21
-11815.91731612261
 31
0.0
  0
LINE
  5
6854A
330
18
100
AcDbEntity
  8
姿図
100
AcDbLine
 10
14860.21328587145
 20
-11816.95317299575
 30
0.0
 11
14860.21328587145
 21
-11822.0149295315
 31
0.0
  0
LINE
  5
6854B
330
18
100
AcDbEntity
  8
姿図
100
AcDbLine
 10
14862.54303425813
 20
-11857.98632612115
 30
0.0
 11
14862.54303425813
 21
-11856.21019180275
 31
0.0
  0
LINE
  5
6854C
330
18
100
AcDbEntity
  8
姿図
100
AcDbLine
 10
14860.21328587145
 20
-11857.0868804973
 30
0.0
 11
14860.21328587145
 21
-11862.05407173759
 31
0.0
  0
LINE
  5
6854D
330
18
100
AcDbEntity
  8
姿図
100
AcDbLine
 10
14862.54303425813
 20
-11857.98632612115
 30
0.0
 11
14861.36536428283
 21
-11857.98632612115
 31
0.0
  0
LINE
  5
6854E
330
18
100
AcDbEntity
  8
姿図
100
AcDbLine
 10
14862.54303425813
 20
-11830.07564397495
 30
0.0
 11
14860.72426802696
 21
-11831.85274652234
 31
0.0
  0
LINE
  5
6854F
330
18
100
AcDbEntity
  8
姿図
100
AcDbLine
 10
14862.54303425813
 20
-11825.86366830562
 30
0.0
 11
14861.24510649094
 21
-11826.00476655259
 31
0.0
  0
LINE
  5
68550
330
18
100
AcDbEntity
  8
姿図
100
AcDbLine
 10
14862.54303425813
 20
-11834.94732667683
 30
0.0
 11
14860.72426802696
 21
-11836.72442922422
 31
0.0
  0
LINE
  5
68551
330
18
100
AcDbEntity
  8
姿図
100
AcDbLine
 10
14861.24510649094
 20
-11826.00476655259
 30
0.0
 11
14861.24510649094
 21
-11827.38769055049
 31
0.0
  0
LINE
  5
68552
330
18
100
AcDbEntity
  8
姿図
100
AcDbLine
 10
14862.54303425813
 20
-11834.94732667683
 30
0.0
 11
14862.54303425813
 21
-11833.27268574806
 31
0.0
  0
LINE
  5
68553
330
18
100
AcDbEntity
  8
姿図
100
AcDbLine
 10
14862.54303425813
 20
-11830.07564397495
 30
0.0
 11
14862.54303425813
 21
-11828.40100304618
 31
0.0
  0
LINE
  5
68554
330
18
100
AcDbEntity
  8
姿図
100
AcDbLine
 10
14862.54303425813
 20
-11825.86366830562
 30
0.0
 11
14862.54303425813
 21
-11823.83380051317
 31
0.0
  0
LINE
  5
68555
330
18
100
AcDbEntity
  8
姿図
100
AcDbLine
 10
14862.54303425813
 20
-11839.81900937872
 30
0.0
 11
14860.72426802696
 21
-11841.5961119261
 31
0.0
  0
LINE
  5
68556
330
18
100
AcDbEntity
  8
姿図
100
AcDbLine
 10
14862.54303425813
 20
-11844.6906920806
 30
0.0
 11
14860.72426802696
 21
-11846.46779462798
 31
0.0
  0
LINE
  5
68557
330
18
100
AcDbEntity
  8
姿図
100
AcDbLine
 10
14862.54303425813
 20
-11849.56237478248
 30
0.0
 11
14860.72426802696
 21
-11851.33947732986
 31
0.0
  0
LINE
  5
68558
330
18
100
AcDbEntity
  8
姿図
100
AcDbLine
 10
14862.54303425813
 20
-11849.56237478248
 30
0.0
 11
14862.54303425813
 21
-11847.88773385371
 31
0.0
  0
LINE
  5
68559
330
18
100
AcDbEntity
  8
姿図
100
AcDbLine
 10
14862.54303425813
 20
-11844.6906920806
 30
0.0
 11
14862.54303425813
 21
-11843.01605115183
 31
0.0
  0
LINE
  5
6855A
330
18
100
AcDbEntity
  8
姿図
100
AcDbLine
 10
14862.54303425813
 20
-11839.81900937872
 30
0.0
 11
14862.54303425813
 21
-11838.14436844994
 31
0.0
  0
LINE
  5
6855B
330
18
100
AcDbEntity
  8
姿図
100
AcDbLine
 10
14862.54303425813
 20
-11854.43405748436
 30
0.0
 11
14860.26802624244
 21
-11854.43405748436
 31
0.0
  0
LINE
  5
6855C
330
18
100
AcDbEntity
  8
姿図
100
AcDbLine
 10
14862.54303425813
 20
-11854.43405748436
 30
0.0
 11
14862.54303425813
 21
-11852.75941655559
 31
0.0
  0
ENDSEC
  0
SECTION
  2
OBJECTS
  0
DICTIONARY
  5
C
330
0
100
AcDbDictionary
281
     1
  3
ACAD_GROUP
350
D
  3
ACAD_IMAGE_VARS
350
68761
  3
ACAD_LAYOUT
350
40CB
  3
ACAD_MLINESTYLE
350
E
  3
ACAD_PLOTSETTINGS
350
40CC
  3
ACAD_PLOTSTYLENAME
350
40C9
  3
ACAD_SCALELIST
350
64E0B
  3
AcadDim
350
FCCB
  3
AcDbVariableDictionary
350
6377
  3
APPDATA
350
68760
  3
DWGPROPS
350
68784
  0
DICTIONARY
  5
64D43
330
2
100
AcDbDictionary
280
     1
281
     1
  3
ACAD_LAYERSTATES
360
64D44
  0
DICTIONARY
  5
65C59
330
F
100
AcDbDictionary
280
     1
281
     1
  3
ADSK_XREC_LAYER_RECONCILED
360
65C5A
  0
DICTIONARY
  5
65C61
330
4C
100
AcDbDictionary
280
     1
281
     1
  3
ADSK_XREC_LAYER_RECONCILED
360
65C62
  0
DICTIONARY
  5
65C63
330
4D
100
AcDbDictionary
280
     1
281
     1
  3
ADSK_XREC_LAYER_RECONCILED
360
65C64
  0
DICTIONARY
  5
65C67
330
40D4
100
AcDbDictionary
280
     1
281
     1
  3
ADSK_XREC_LAYER_RECONCILED
360
65C68
  0
DICTIONARY
  5
65C6D
330
64DCD
100
AcDbDictionary
280
     1
281
     1
  3
ADSK_XREC_LAYER_RECONCILED
360
65C6E
  0
DICTIONARY
  5
D
102
{ACAD_REACTORS
330
C
102
}
330
C
100
AcDbDictionary
281
     1
  0
RASTERVARIABLES
  5
68761
102
{ACAD_REACTORS
330
C
102
}
330
C
100
AcDbRasterVariables
 90
        0
 70
     1
 71
     1
 72
     0
  0
DICTIONARY
  5
40CB
102
{ACAD_REACTORS
330
C
102
}
330
C
100
AcDbDictionary
281
     1
  3
Model
350
40CD
  3
ﾚｲｱｳﾄ1
350
40CE
  0
DICTIONARY
  5
E
102
{ACAD_REACTORS
330
C
102
}
330
C
100
AcDbDictionary
281
     1
  3
STANDARD
350
1B
  0
DICTIONARY
  5
40CC
102
{ACAD_REACTORS
330
C
102
}
330
C
100
AcDbDictionary
281
     1
  0
ACDBDICTIONARYWDFLT
  5
40C9
102
{ACAD_REACTORS
330
C
102
}
330
C
100
AcDbDictionary
281
     1
  3
Normal
350
40CA
100
AcDbDictionaryWithDefault
340
40CA
  0
DICTIONARY
  5
64E0B
102
{ACAD_REACTORS
330
C
102
}
330
C
100
AcDbDictionary
281
     1
  3
A0
350
64E0C
  3
A1
350
64E0D
  3
A2
350
64E0E
  3
A3
350
64E0F
  3
A4
350
64E10
  3
A5
350
64E11
  3
A6
350
64E12
  3
A7
350
64E13
  3
A8
350
64E14
  3
A9
350
64E15
  3
B0
350
64E16
  3
B1
350
64E17
  3
B2
350
64E18
  3
B3
350
64E19
  3
B4
350
64E1A
  3
B5
350
64E1B
  3
B6
350
64E1C
  3
B7
350
64E1D
  3
B8
350
64E1E
  3
B9
350
64E1F
  3
C0
350
64E20
  3
C1
350
64E21
  3
C2
350
64E22
  3
C3
350
64E23
  3
C4
350
64E24
  3
C5
350
64E25
  3
C6
350
64E26
  3
C7
350
64E27
  3
C8
350
64E28
  3
C9
350
64E29
  3
D0
350
64E2A
  3
D1
350
64E2B
  3
D2
350
64E2C
  0
XRECORD
  5
FCCB
102
{ACAD_REACTORS
330
C
102
}
330
C
100
AcDbXrecord
280
     1
 90
   990106
  3

 60
     0
 61
     0
 62
     1
 63
     3
 64
     0
 65
     0
 66
     0
 67
     3
 68
     1
 69
     0
 70
     0
 71
     0
 72
     0
 40
2.0
170
     0
  0
DICTIONARY
  5
6377
102
{ACAD_REACTORS
330
C
102
}
330
C
100
AcDbDictionary
281
     1
  3
DIMASSOC
350
73F2
  3
INDEXCTL
350
65C82
  3
PROJECTNAME
350
61970
  3
SORTENTS
350
6378
  0
DICTIONARY
  5
68760
102
{ACAD_REACTORS
330
C
102
}
330
C
100
AcDbDictionary
281
     1
  0
XRECORD
  5
68784
102
{ACAD_REACTORS
330
C
102
}
330
C
100
AcDbXrecord
280
     1
  1
DWGPROPS COOKIE
  2

  3

  4

  6

  7

  8
SPAX
  9

300
=
301
=
302
=
303
=
304
=
305
=
306
=
307
=
308
=
309
=
 40
0.0
 41
2449505.547222222
 42
2456822.116661412
  1

 90
        0
  0
DICTIONARY
  5
64D44
102
{ACAD_REACTORS
330
64D43
102
}
330
64D43
100
AcDbDictionary
281
     1
  0
XRECORD
  5
65C5A
102
{ACAD_REACTORS
330
65C59
102
}
330
65C59
100
AcDbXrecord
280
     1
290
     1
  0
XRECORD
  5
65C62
102
{ACAD_REACTORS
330
65C61
102
}
330
65C61
100
AcDbXrecord
280
     1
290
     1
  0
XRECORD
  5
65C64
102
{ACAD_REACTORS
330
65C63
102
}
330
65C63
100
AcDbXrecord
280
     1
290
     1
  0
XRECORD
  5
65C68
102
{ACAD_REACTORS
330
65C67
102
}
330
65C67
100
AcDbXrecord
280
     1
290
     1
  0
XRECORD
  5
65C6E
102
{ACAD_REACTORS
330
65C6D
102
}
330
65C6D
100
AcDbXrecord
280
     1
290
     1
  0
LAYOUT
  5
40CD
102
{ACAD_REACTORS
330
40CB
102
}
330
40CB
100
AcDbPlotSettings
  1

  2
JUST PDF 2.pc3
  4
A4
  6
CUT1
 40
3.174999952316284
 41
3.174999952316284
 42
3.175003051757812
 43
3.17498779296875
 44
209.8886566162109
 45
297.0530090332031
 46
14.27
 47
9.86
 48
14453.77612405367
 49
-10849.72352129548
140
16203.72830900273
141
-8139.796769908819
142
1.0
143
10.0
 70
 11940
 72
     1
 73
     0
 74
     4
  7
spax form.ctb
 75
     0
147
0.1
148
-14453.77612405367
149
10849.72352129548
100
AcDbLayout
  1
Model
 70
     1
 71
     0
 10
0.0
 20
0.0
 11
12.0
 21
9.0
 12
0.0
 22
0.0
 32
0.0
 14
14476.31284627116
 24
-12000.76023094428
 34
0.0
 15
14898.9638320189
 25
-11573.3727037335
 35
0.0
146
0.0
 13
0.0
 23
0.0
 33
0.0
 16
1.0
 26
0.0
 36
0.0
 17
0.0
 27
1.0
 37
0.0
 76
     0
330
18
331
67CA2
1001
ACAD_PSEXT
1000
DWG To PDF.pc3
1000
PDF
1000
ファイル
1000

1070
     0
  0
LAYOUT
  5
40CE
102
{ACAD_REACTORS
330
40CB
102
}
330
40CB
100
AcDbPlotSettings
  1

  2
なし
  4

  6

 40
0.0
 41
0.0
 42
0.0
 43
0.0
 44
0.0
 45
0.0
 46
0.0
 47
0.0
 48
0.0
 49
0.0
140
0.0
141
0.0
142
1.0
143
1.0
 70
   688
 72
     0
 73
     0
 74
     5
  7
spax form.ctb
 75
    16
147
1.0
148
0.0
149
0.0
100
AcDbLayout
  1
ﾚｲｱｳﾄ1
 70
     0
 71
     1
 10
0.0
 20
0.0
 11
12.0
 21
9.0
 12
0.0
 22
0.0
 32
0.0
 14
1.000000000000000E+20
 24
1.000000000000000E+20
 34
1.000000000000000E+20
 15
-1.000000000000000E+20
 25
-1.000000000000000E+20
 35
-1.000000000000000E+20
146
0.0
 13
0.0
 23
0.0
 33
0.0
 16
1.0
 26
0.0
 36
0.0
 17
0.0
 27
1.0
 37
0.0
 76
     0
330
15
  0
MLINESTYLE
  5
1B
102
{ACAD_REACTORS
330
E
102
}
330
E
100
AcDbMlineStyle
  2
STANDARD
 70
     0
  3

 62
     0
 51
90.0
 52
90.0
 71
     2
 49
0.5
 62
   256
  6
BYLAYER
 49
-0.5
 62
   256
  6
BYLAYER
  0
ACDBPLACEHOLDER
  5
40CA
102
{ACAD_REACTORS
330
40C9
102
}
330
40C9
  0
SCALE
  5
64E0C
102
{ACAD_REACTORS
330
64E0B
102
}
330
64E0B
100
AcDbScale
 70
     0
300
1:1
140
1.0
141
1.0
290
     1
1001
ACAD
1000
AcRTDxfName
1000
SCALE
1000
AcRTDxfName
1000
SCALE
1000
AcRTDxfName
1000
SCALE
  0
SCALE
  5
64E0D
102
{ACAD_REACTORS
330
64E0B
102
}
330
64E0B
100
AcDbScale
 70
     0
300
1:2
140
1.0
141
2.0
290
     0
1001
ACAD
1000
AcRTDxfName
1000
SCALE
1000
AcRTDxfName
1000
SCALE
1000
AcRTDxfName
1000
SCALE
  0
SCALE
  5
64E0E
102
{ACAD_REACTORS
330
64E0B
102
}
330
64E0B
100
AcDbScale
 70
     0
300
1:4
140
1.0
141
4.0
290
     0
1001
ACAD
1000
AcRTDxfName
1000
SCALE
1000
AcRTDxfName
1000
SCALE
1000
AcRTDxfName
1000
SCALE
  0
SCALE
  5
64E0F
102
{ACAD_REACTORS
330
64E0B
102
}
330
64E0B
100
AcDbScale
 70
     0
300
1:5
140
1.0
141
5.0
290
     0
1001
ACAD
1000
AcRTDxfName
1000
SCALE
1000
AcRTDxfName
1000
SCALE
1000
AcRTDxfName
1000
SCALE
  0
SCALE
  5
64E10
102
{ACAD_REACTORS
330
64E0B
102
}
330
64E0B
100
AcDbScale
 70
     0
300
1:8
140
1.0
141
8.0
290
     0
1001
ACAD
1000
AcRTDxfName
1000
SCALE
1000
AcRTDxfName
1000
SCALE
1000
AcRTDxfName
1000
SCALE
  0
SCALE
  5
64E11
102
{ACAD_REACTORS
330
64E0B
102
}
330
64E0B
100
AcDbScale
 70
     0
300
1:10
140
1.0
141
10.0
290
     0
1001
ACAD
1000
AcRTDxfName
1000
SCALE
1000
AcRTDxfName
1000
SCALE
1000
AcRTDxfName
1000
SCALE
  0
SCALE
  5
64E12
102
{ACAD_REACTORS
330
64E0B
102
}
330
64E0B
100
AcDbScale
 70
     0
300
1:16
140
1.0
141
16.0
290
     0
1001
ACAD
1000
AcRTDxfName
1000
SCALE
1000
AcRTDxfName
1000
SCALE
1000
AcRTDxfName
1000
SCALE
  0
SCALE
  5
64E13
102
{ACAD_REACTORS
330
64E0B
102
}
330
64E0B
100
AcDbScale
 70
     0
300
1:20
140
1.0
141
20.0
290
     0
1001
ACAD
1000
AcRTDxfName
1000
SCALE
1000
AcRTDxfName
1000
SCALE
1000
AcRTDxfName
1000
SCALE
  0
SCALE
  5
64E14
102
{ACAD_REACTORS
330
64E0B
102
}
330
64E0B
100
AcDbScale
 70
     0
300
1:30
140
1.0
141
30.0
290
     0
1001
ACAD
1000
AcRTDxfName
1000
SCALE
1000
AcRTDxfName
1000
SCALE
1000
AcRTDxfName
1000
SCALE
  0
SCALE
  5
64E15
102
{ACAD_REACTORS
330
64E0B
102
}
330
64E0B
100
AcDbScale
 70
     0
300
1:40
140
1.0
141
40.0
290
     0
1001
ACAD
1000
AcRTDxfName
1000
SCALE
1000
AcRTDxfName
1000
SCALE
1000
AcRTDxfName
1000
SCALE
  0
SCALE
  5
64E16
102
{ACAD_REACTORS
330
64E0B
102
}
330
64E0B
100
AcDbScale
 70
     0
300
1:50
140
1.0
141
50.0
290
     0
1001
ACAD
1000
AcRTDxfName
1000
SCALE
1000
AcRTDxfName
1000
SCALE
1000
AcRTDxfName
1000
SCALE
  0
SCALE
  5
64E17
102
{ACAD_REACTORS
330
64E0B
102
}
330
64E0B
100
AcDbScale
 70
     0
300
1:100
140
1.0
141
100.0
290
     0
1001
ACAD
1000
AcRTDxfName
1000
SCALE
1000
AcRTDxfName
1000
SCALE
1000
AcRTDxfName
1000
SCALE
  0
SCALE
  5
64E18
102
{ACAD_REACTORS
330
64E0B
102
}
330
64E0B
100
AcDbScale
 70
     0
300
2:1
140
2.0
141
1.0
290
     0
1001
ACAD
1000
AcRTDxfName
1000
SCALE
1000
AcRTDxfName
1000
SCALE
1000
AcRTDxfName
1000
SCALE
  0
SCALE
  5
64E19
102
{ACAD_REACTORS
330
64E0B
102
}
330
64E0B
100
AcDbScale
 70
     0
300
4:1
140
4.0
141
1.0
290
     0
1001
ACAD
1000
AcRTDxfName
1000
SCALE
1000
AcRTDxfName
1000
SCALE
1000
AcRTDxfName
1000
SCALE
  0
SCALE
  5
64E1A
102
{ACAD_REACTORS
330
64E0B
102
}
330
64E0B
100
AcDbScale
 70
     0
300
8:1
140
8.0
141
1.0
290
     0
1001
ACAD
1000
AcRTDxfName
1000
SCALE
1000
AcRTDxfName
1000
SCALE
1000
AcRTDxfName
1000
SCALE
  0
SCALE
  5
64E1B
102
{ACAD_REACTORS
330
64E0B
102
}
330
64E0B
100
AcDbScale
 70
     0
300
10:1
140
10.0
141
1.0
290
     0
1001
ACAD
1000
AcRTDxfName
1000
SCALE
1000
AcRTDxfName
1000
SCALE
1000
AcRTDxfName
1000
SCALE
  0
SCALE
  5
64E1C
102
{ACAD_REACTORS
330
64E0B
102
}
330
64E0B
100
AcDbScale
 70
     0
300
100:1
140
100.0
141
1.0
290
     0
1001
ACAD
1000
AcRTDxfName
1000
SCALE
1000
AcRTDxfName
1000
SCALE
1000
AcRTDxfName
1000
SCALE
  0
SCALE
  5
64E1D
102
{ACAD_REACTORS
330
64E0B
102
}
330
64E0B
100
AcDbScale
 70
     0
300
1/128" = 1'-0"
140
0.0078125
141
12.0
290
     0
1001
ACAD
1000
AcRTDxfName
1000
SCALE
1000
AcRTDxfName
1000
SCALE
1000
AcRTDxfName
1000
SCALE
  0
SCALE
  5
64E1E
102
{ACAD_REACTORS
330
64E0B
102
}
330
64E0B
100
AcDbScale
 70
     0
300
1/64" = 1'-0"
140
0.015625
141
12.0
290
     0
1001
ACAD
1000
AcRTDxfName
1000
SCALE
1000
AcRTDxfName
1000
SCALE
1000
AcRTDxfName
1000
SCALE
  0
SCALE
  5
64E1F
102
{ACAD_REACTORS
330
64E0B
102
}
330
64E0B
100
AcDbScale
 70
     0
300
1/32" = 1'-0"
140
0.03125
141
12.0
290
     0
1001
ACAD
1000
AcRTDxfName
1000
SCALE
1000
AcRTDxfName
1000
SCALE
1000
AcRTDxfName
1000
SCALE
  0
SCALE
  5
64E20
102
{ACAD_REACTORS
330
64E0B
102
}
330
64E0B
100
AcDbScale
 70
     0
300
1/16" = 1'-0"
140
0.0625
141
12.0
290
     0
1001
ACAD
1000
AcRTDxfName
1000
SCALE
1000
AcRTDxfName
1000
SCALE
1000
AcRTDxfName
1000
SCALE
  0
SCALE
  5
64E21
102
{ACAD_REACTORS
330
64E0B
102
}
330
64E0B
100
AcDbScale
 70
     0
300
3/32" = 1'-0"
140
0.09375
141
12.0
290
     0
1001
ACAD
1000
AcRTDxfName
1000
SCALE
1000
AcRTDxfName
1000
SCALE
1000
AcRTDxfName
1000
SCALE
  0
SCALE
  5
64E22
102
{ACAD_REACTORS
330
64E0B
102
}
330
64E0B
100
AcDbScale
 70
     0
300
1/8" = 1'-0"
140
0.125
141
12.0
290
     0
1001
ACAD
1000
AcRTDxfName
1000
SCALE
1000
AcRTDxfName
1000
SCALE
1000
AcRTDxfName
1000
SCALE
  0
SCALE
  5
64E23
102
{ACAD_REACTORS
330
64E0B
102
}
330
64E0B
100
AcDbScale
 70
     0
300
3/16" = 1'-0"
140
0.1875
141
12.0
290
     0
1001
ACAD
1000
AcRTDxfName
1000
SCALE
1000
AcRTDxfName
1000
SCALE
1000
AcRTDxfName
1000
SCALE
  0
SCALE
  5
64E24
102
{ACAD_REACTORS
330
64E0B
102
}
330
64E0B
100
AcDbScale
 70
     0
300
1/4" = 1'-0"
140
0.25
141
12.0
290
     0
1001
ACAD
1000
AcRTDxfName
1000
SCALE
1000
AcRTDxfName
1000
SCALE
1000
AcRTDxfName
1000
SCALE
  0
SCALE
  5
64E25
102
{ACAD_REACTORS
330
64E0B
102
}
330
64E0B
100
AcDbScale
 70
     0
300
3/8" = 1'-0"
140
0.375
141
12.0
290
     0
1001
ACAD
1000
AcRTDxfName
1000
SCALE
1000
AcRTDxfName
1000
SCALE
1000
AcRTDxfName
1000
SCALE
  0
SCALE
  5
64E26
102
{ACAD_REACTORS
330
64E0B
102
}
330
64E0B
100
AcDbScale
 70
     0
300
1/2" = 1'-0"
140
0.5
141
12.0
290
     0
1001
ACAD
1000
AcRTDxfName
1000
SCALE
1000
AcRTDxfName
1000
SCALE
1000
AcRTDxfName
1000
SCALE
  0
SCALE
  5
64E27
102
{ACAD_REACTORS
330
64E0B
102
}
330
64E0B
100
AcDbScale
 70
     0
300
3/4" = 1'-0"
140
0.75
141
12.0
290
     0
1001
ACAD
1000
AcRTDxfName
1000
SCALE
1000
AcRTDxfName
1000
SCALE
1000
AcRTDxfName
1000
SCALE
  0
SCALE
  5
64E28
102
{ACAD_REACTORS
330
64E0B
102
}
330
64E0B
100
AcDbScale
 70
     0
300
1" = 1'-0"
140
1.0
141
12.0
290
     0
1001
ACAD
1000
AcRTDxfName
1000
SCALE
1000
AcRTDxfName
1000
SCALE
1000
AcRTDxfName
1000
SCALE
  0
SCALE
  5
64E29
102
{ACAD_REACTORS
330
64E0B
102
}
330
64E0B
100
AcDbScale
 70
     0
300
1-1/2" = 1'-0"
140
1.5
141
12.0
290
     0
1001
ACAD
1000
AcRTDxfName
1000
SCALE
1000
AcRTDxfName
1000
SCALE
1000
AcRTDxfName
1000
SCALE
  0
SCALE
  5
64E2A
102
{ACAD_REACTORS
330
64E0B
102
}
330
64E0B
100
AcDbScale
 70
     0
300
3" = 1'-0"
140
3.0
141
12.0
290
     0
1001
ACAD
1000
AcRTDxfName
1000
SCALE
1000
AcRTDxfName
1000
SCALE
1000
AcRTDxfName
1000
SCALE
  0
SCALE
  5
64E2B
102
{ACAD_REACTORS
330
64E0B
102
}
330
64E0B
100
AcDbScale
 70
     0
300
6" = 1'-0"
140
6.0
141
12.0
290
     0
1001
ACAD
1000
AcRTDxfName
1000
SCALE
1000
AcRTDxfName
1000
SCALE
1000
AcRTDxfName
1000
SCALE
  0
SCALE
  5
64E2C
102
{ACAD_REACTORS
330
64E0B
102
}
330
64E0B
100
AcDbScale
 70
     0
300
1'-0" = 1'-0"
140
12.0
141
12.0
290
     0
1001
ACAD
1000
AcRTDxfName
1000
SCALE
1000
AcRTDxfName
1000
SCALE
1000
AcRTDxfName
1000
SCALE
  0
DICTIONARYVAR
  5
73F2
102
{ACAD_REACTORS
330
6377
102
}
330
6377
100
DictionaryVariables
280
     0
  1
1
  0
DICTIONARYVAR
  5
65C82
102
{ACAD_REACTORS
330
6377
102
}
330
6377
100
DictionaryVariables
280
     0
  1
0
  0
DICTIONARYVAR
  5
61970
102
{ACAD_REACTORS
330
6377
102
}
330
6377
100
DictionaryVariables
280
     0
  1

  0
DICTIONARYVAR
  5
6378
102
{ACAD_REACTORS
330
6377
102
}
330
6377
100
DictionaryVariables
280
     0
  1
96
  0
ENDSEC
  0
EOF
