  0
SECTION
  2
HEADER
  9
$ACADVER
  1
AC1015
  9
$ACADMAINTVER
 70
     6
  9
$DWGCODEPAGE
  3
ANSI_932
  9
$INSBASE
 10
0.0
 20
0.0
 30
0.0
  9
$EXTMIN
 10
4928.15392543518
 20
-11597.7101517634
 30
0.0
  9
$EXTMAX
 10
5308.115925435181
 20
-11265.71201360867
 30
0.0
  9
$LIMMIN
 10
0.0
 20
0.0
  9
$LIMMAX
 10
840.0
 20
594.0
  9
$ORTHOMODE
 70
     1
  9
$REGENMODE
 70
     1
  9
$FILLMODE
 70
     1
  9
$QTEXTMODE
 70
     0
  9
$MIRRTEXT
 70
     1
  9
$LTSCALE
 40
7.0
  9
$ATTMODE
 70
     0
  9
$TEXTSIZE
 40
6.0
  9
$TRACEWID
 40
1.0
  9
$TEXTSTYLE
  7
STANDARD
  9
$CLAYER
  8
寸法線
  9
$CELTYPE
  6
BYLAYER
  9
$CECOLOR
 62
   256
  9
$CELTSCALE
 40
1.0
  9
$DISPSILH
 70
     0
  9
$DIMSCALE
 40
1.0
  9
$DIMASZ
 40
10.0
  9
$DIMEXO
 40
3.0
  9
$DIMDLI
 40
7.149999999999999
  9
$DIMRND
 40
0.0
  9
$DIMDLE
 40
0.0
  9
$DIMEXE
 40
2.0
  9
$DIMTP
 40
0.0
  9
$DIMTM
 40
0.0
  9
$DIMTXT
 40
18.0
  9
$DIMCEN
 40
0.0
  9
$DIMTSZ
 40
0.0
  9
$DIMTOL
 70
     0
  9
$DIMLIM
 70
     0
  9
$DIMTIH
 70
     0
  9
$DIMTOH
 70
     0
  9
$DIMSE1
 70
     0
  9
$DIMSE2
 70
     0
  9
$DIMTAD
 70
     3
  9
$DIMZIN
 70
     8
  9
$DIMBLK
  1
OPEN
  9
$DIMASO
 70
     1
  9
$DIMSHO
 70
     0
  9
$DIMPOST
  1

  9
$DIMAPOST
  1

  9
$DIMALT
 70
     0
  9
$DIMALTD
 70
     2
  9
$DIMALTF
 40
25.4
  9
$DIMLFAC
 40
1.0
  9
$DIMTOFL
 70
     0
  9
$DIMTVP
 40
0.0
  9
$DIMTIX
 70
     0
  9
$DIMSOXD
 70
     0
  9
$DIMSAH
 70
     0
  9
$DIMBLK1
  1

  9
$DIMBLK2
  1

  9
$DIMSTYLE
  2
STANDARD
  9
$DIMCLRD
 70
     8
  9
$DIMCLRE
 70
     8
  9
$DIMCLRT
 70
     0
  9
$DIMTFAC
 40
1.0
  9
$DIMGAP
 40
4.0
  9
$DIMJUST
 70
     0
  9
$DIMSD1
 70
     0
  9
$DIMSD2
 70
     0
  9
$DIMTOLJ
 70
     1
  9
$DIMTZIN
 70
     0
  9
$DIMALTZ
 70
     0
  9
$DIMALTTZ
 70
     0
  9
$DIMUPT
 70
     1
  9
$DIMDEC
 70
     2
  9
$DIMTDEC
 70
     2
  9
$DIMALTU
 70
     2
  9
$DIMALTTD
 70
     2
  9
$DIMTXSTY
  7
STANDARD
  9
$DIMAUNIT
 70
     0
  9
$DIMADEC
 70
     2
  9
$DIMALTRND
 40
0.0
  9
$DIMAZIN
 70
     2
  9
$DIMDSEP
 70
    46
  9
$DIMATFIT
 70
     3
  9
$DIMFRAC
 70
     0
  9
$DIMLDRBLK
  1
OPEN
  9
$DIMLUNIT
 70
     2
  9
$DIMLWD
 70
    -2
  9
$DIMLWE
 70
    -2
  9
$DIMTMOVE
 70
     0
  9
$LUNITS
 70
     2
  9
$LUPREC
 70
     2
  9
$SKETCHINC
 40
0.1
  9
$FILLETRAD
 40
0.6
  9
$AUNITS
 70
     0
  9
$AUPREC
 70
     2
  9
$MENU
  1
ACAD
  9
$ELEVATION
 40
0.0
  9
$PELEVATION
 40
0.0
  9
$THICKNESS
 40
0.0
  9
$LIMCHECK
 70
     0
  9
$CHAMFERA
 40
0.0
  9
$CHAMFERB
 40
0.0
  9
$CHAMFERC
 40
0.0
  9
$CHAMFERD
 40
0.0
  9
$SKPOLY
 70
     0
  9
$TDCREATE
 40
2449505.922222222
  9
$TDUCREATE
 40
2449505.547222222
  9
$TDUPDATE
 40
2456825.890808576
  9
$TDUUPDATE
 40
2456825.515808576
  9
$TDINDWG
 40
2.4253004167
  9
$TDUSRTIMER
 40
2456825.515531516
  9
$USRTIMER
 70
     1
  9
$ANGBASE
 50
0.0
  9
$ANGDIR
 70
     0
  9
$PDMODE
 70
     3
  9
$PDSIZE
 40
0.0
  9
$PLINEWID
 40
0.0
  9
$SPLFRAME
 70
     0
  9
$SPLINETYPE
 70
     6
  9
$SPLINESEGS
 70
     8
  9
$HANDSEED
  5
6A553
  9
$SURFTAB1
 70
     6
  9
$SURFTAB2
 70
     6
  9
$SURFTYPE
 70
     6
  9
$SURFU
 70
     6
  9
$SURFV
 70
     6
  9
$UCSBASE
  2

  9
$UCSNAME
  2

  9
$UCSORG
 10
0.0
 20
0.0
 30
0.0
  9
$UCSXDIR
 10
1.0
 20
0.0
 30
0.0
  9
$UCSYDIR
 10
0.0
 20
1.0
 30
0.0
  9
$UCSORTHOREF
  2

  9
$UCSORTHOVIEW
 70
     0
  9
$UCSORGTOP
 10
0.0
 20
0.0
 30
0.0
  9
$UCSORGBOTTOM
 10
0.0
 20
0.0
 30
0.0
  9
$UCSORGLEFT
 10
0.0
 20
0.0
 30
0.0
  9
$UCSORGRIGHT
 10
0.0
 20
0.0
 30
0.0
  9
$UCSORGFRONT
 10
0.0
 20
0.0
 30
0.0
  9
$UCSORGBACK
 10
0.0
 20
0.0
 30
0.0
  9
$PUCSBASE
  2

  9
$PUCSNAME
  2

  9
$PUCSORG
 10
0.0
 20
0.0
 30
0.0
  9
$PUCSXDIR
 10
1.0
 20
0.0
 30
0.0
  9
$PUCSYDIR
 10
0.0
 20
1.0
 30
0.0
  9
$PUCSORTHOREF
  2

  9
$PUCSORTHOVIEW
 70
     0
  9
$PUCSORGTOP
 10
0.0
 20
0.0
 30
0.0
  9
$PUCSORGBOTTOM
 10
0.0
 20
0.0
 30
0.0
  9
$PUCSORGLEFT
 10
0.0
 20
0.0
 30
0.0
  9
$PUCSORGRIGHT
 10
0.0
 20
0.0
 30
0.0
  9
$PUCSORGFRONT
 10
0.0
 20
0.0
 30
0.0
  9
$PUCSORGBACK
 10
0.0
 20
0.0
 30
0.0
  9
$USERI1
 70
     0
  9
$USERI2
 70
     0
  9
$USERI3
 70
     0
  9
$USERI4
 70
     0
  9
$USERI5
 70
     0
  9
$USERR1
 40
0.0
  9
$USERR2
 40
0.0
  9
$USERR3
 40
0.0
  9
$USERR4
 40
0.0
  9
$USERR5
 40
0.0
  9
$WORLDVIEW
 70
     0
  9
$SHADEDGE
 70
     3
  9
$SHADEDIF
 70
    70
  9
$TILEMODE
 70
     1
  9
$MAXACTVP
 70
    16
  9
$PINSBASE
 10
0.0
 20
0.0
 30
0.0
  9
$PLIMCHECK
 70
     0
  9
$PEXTMIN
 10
1.000000000000000E+20
 20
1.000000000000000E+20
 30
1.000000000000000E+20
  9
$PEXTMAX
 10
-1.000000000000000E+20
 20
-1.000000000000000E+20
 30
-1.000000000000000E+20
  9
$PLIMMIN
 10
0.0
 20
0.0
  9
$PLIMMAX
 10
0.0
 20
0.0
  9
$UNITMODE
 70
     0
  9
$VISRETAIN
 70
     0
  9
$PLINEGEN
 70
     0
  9
$PSLTSCALE
 70
     0
  9
$TREEDEPTH
 70
  3020
  9
$CMLSTYLE
  2
STANDARD
  9
$CMLJUST
 70
     0
  9
$CMLSCALE
 40
1.0
  9
$PROXYGRAPHICS
 70
     1
  9
$MEASUREMENT
 70
     0
  9
$CELWEIGHT
370
    -1
  9
$ENDCAPS
280
     0
  9
$JOINSTYLE
280
     0
  9
$LWDISPLAY
290
     0
  9
$INSUNITS
 70
     0
  9
$HYPERLINKBASE
  1

  9
$STYLESHEET
  1
spax form.ctb
  9
$XEDIT
290
     1
  9
$CEPSNTYPE
380
     0
  9
$PSTYLEMODE
290
     1
  9
$FINGERPRINTGUID
  2
{C1CFCF3E-DF91-11D3-B30C-0060B0FA8DFC}
  9
$VERSIONGUID
  2
{31BE3BDA-F4DF-4EC8-92E6-B54971303546}
  9
$EXTNAMES
290
     1
  9
$PSVPSCALE
 40
0.0
  9
$OLESTARTUP
290
     0
  0
ENDSEC
  0
SECTION
  2
CLASSES
  0
CLASS
  1
LWPOLYLINE
  2
AcDbPolyline
  3
ObjectDBX Classes
 90
        0
280
     0
281
     1
  0
CLASS
  1
ACDBDICTIONARYWDFLT
  2
AcDbDictionaryWithDefault
  3
ObjectDBX Classes
 90
        0
280
     0
281
     0
  0
CLASS
  1
ACDBPLACEHOLDER
  2
AcDbPlaceHolder
  3
ObjectDBX Classes
 90
        0
280
     0
281
     0
  0
CLASS
  1
LAYOUT
  2
AcDbLayout
  3
ObjectDBX Classes
 90
        0
280
     0
281
     0
  0
CLASS
  1
DICTIONARYVAR
  2
AcDbDictionaryVar
  3
ObjectDBX Classes
 90
        0
280
     0
281
     0
  0
CLASS
  1
LONG_TRANSACTION
  2
AcDbLongTransaction
  3
ObjectDBX Classes
 90
        0
280
     0
281
     0
  0
CLASS
  1
LWPOLYLINE
  2
AcDbPolyline
  3
ObjectDBX Classes
 90
        0
280
     0
281
     1
  0
CLASS
  1
HATCH
  2
AcDbHatch
  3
ObjectDBX Classes
 90
        0
280
     0
281
     1
  0
CLASS
  1
XRECORD
  2
AcDbXrecord
  3
ObjectDBX Classes
 90
        0
280
     0
281
     0
  0
CLASS
  1
SORTENTSTABLE
  2
AcDbSortentsTable
  3
ObjectDBX Classes
 90
        0
280
     0
281
     0
  0
CLASS
  1
MATERIAL
  2
AcDbMaterial
  3
ObjectDBX Classes
 90
     1153
280
     0
281
     0
  0
CLASS
  1
VISUALSTYLE
  2
AcDbVisualStyle
  3
ObjectDBX Classes
 90
     4095
280
     0
281
     0
  0
CLASS
  1
TABLESTYLE
  2
AcDbTableStyle
  3
ObjectDBX Classes
 90
     4095
280
     0
281
     0
  0
CLASS
  1
SCALE
  2
AcDbScale
  3
ObjectDBX Classes
 90
     1153
280
     0
281
     0
  0
CLASS
  1
MLEADERSTYLE
  2
AcDbMLeaderStyle
  3
ACDB_MLEADERSTYLE_CLASS
 90
     4095
280
     0
281
     0
  0
CLASS
  1
CELLSTYLEMAP
  2
AcDbCellStyleMap
  3
ObjectDBX Classes
 90
     1152
280
     0
281
     0
  0
CLASS
  1
RASTERVARIABLES
  2
AcDbRasterVariables
  3
ISM
 90
        0
280
     0
281
     0
  0
CLASS
  1
AEC_VARS_DWG_SETUP
  2
AecDbVarsDwgSetup
  3
AecBase60
 90
      129
280
     0
281
     0
  0
CLASS
  1
AEC_DISP_REP_2D_SECTION
  2
AecDbDispRep2dSection
  3
AecBase60
 90
      129
280
     0
281
     0
  0
CLASS
  1
AEC_DISP_PROPS_2D_SECTION
  2
AecDbDispProps2dSection
  3
AecBase60
 90
      129
280
     0
281
     0
  0
CLASS
  1
AEC_DISP_REP_CLIP_VOLUME_MODEL
  2
AecDbDispRepClipVolModel
  3
AecBase60
 90
      129
280
     0
281
     0
  0
CLASS
  1
AEC_DISP_PROPS_CLIP_VOLUME
  2
AecDbDispPropsClipVol
  3
AecBase60
 90
      129
280
     0
281
     0
  0
CLASS
  1
AEC_DISP_REP_CLIP_VOLUME_PLAN
  2
AecDbDispRepClipVolPlan
  3
AecBase60
 90
      129
280
     0
281
     0
  0
CLASS
  1
AEC_DISP_REP_CLIP_VOLUME_RESULT
  2
AecDbDispRepClipVolResult
  3
AecBase60
 90
      129
280
     0
281
     0
  0
CLASS
  1
AEC_DISP_REP_CLIP_VOLUME_RESULT_SUBDIV
  2
AecDbDispRepClipVolResSubDiv
  3
AecBase60
 90
      129
280
     0
281
     0
  0
CLASS
  1
AEC_DISP_PROPS_CLIP_VOLUME_RESULT
  2
AecDbDispPropsClipVolResSubDiv
  3
AecBase60
 90
      129
280
     0
281
     0
  0
CLASS
  1
AEC_DISP_REP_DISPLAYTHEME
  2
AecDbDispRepDisplayTheme
  3
AecBase60
 90
      129
280
     0
281
     0
  0
CLASS
  1
AEC_DISP_PROPS_DISPLAYTHEME
  2
AecDbDispPropsDisplayTheme
  3
AecBase60
 90
      129
280
     0
281
     0
  0
CLASS
  1
AEC_DISP_REP_ENT_REF
  2
AecDbDispRepEntRef
  3
AecBase60
 90
      129
280
     0
281
     0
  0
CLASS
  1
AEC_DISP_PROPS_ENT_REF
  2
AecDbDispPropsEntRef
  3
AecBase60
 90
      129
280
     0
281
     0
  0
CLASS
  1
AEC_DISP_REP_LAYOUT_CURVE
  2
AecDbDispRepLayoutCurve
  3
AecBase60
 90
      129
280
     0
281
     0
  0
CLASS
  1
AEC_DISP_PROPS_LAYOUT_CURVE
  2
AecDbDispPropsLayoutCurve
  3
AecBase60
 90
      129
280
     0
281
     0
  0
CLASS
  1
AEC_DISP_REP_LAYOUT_GRID2D
  2
AecDbDispRepLayoutGrid2d
  3
AecBase60
 90
      129
280
     0
281
     0
  0
CLASS
  1
AEC_DISP_PROPS_LAYOUT_GRID2D
  2
AecDbDispPropsLayoutGrid2d
  3
AecBase60
 90
      129
280
     0
281
     0
  0
CLASS
  1
AEC_DISP_REP_LAYOUT_GRID3D
  2
AecDbDispRepLayoutGrid3d
  3
AecBase60
 90
      129
280
     0
281
     0
  0
CLASS
  1
AEC_DISP_PROPS_LAYOUT_GRID3D
  2
AecDbDispPropsLayoutGrid3d
  3
AecBase60
 90
      129
280
     0
281
     0
  0
CLASS
  1
AEC_DISP_REP_MASKBLOCK_REF
  2
AecDbDispRepMaskBlockRef
  3
AecBase60
 90
      129
280
     0
281
     0
  0
CLASS
  1
AEC_DISP_PROPS_MASKBLOCK
  2
AecDbDispPropsMaskBlock
  3
AecBase60
 90
      129
280
     0
281
     0
  0
CLASS
  1
AEC_DISP_REP_MASKBLOCK_REF_RCP
  2
AecDbDispRepMaskBlockRefRcp
  3
AecArchBase60
 90
      129
280
     0
281
     0
  0
CLASS
  1
AEC_DISP_REP_MASS_ELEM_MODEL
  2
AecDbDispRepMassElemModel
  3
AecBase60
 90
      129
280
     0
281
     0
  0
CLASS
  1
AEC_DISP_PROPS_MASS_ELEM_MODEL
  2
AecDbDispPropsMassElem
  3
AecBase60
 90
      129
280
     0
281
     0
  0
CLASS
  1
AEC_DISP_REP_MASS_ELEM_SCHEM
  2
AecDbDispRepMassElemSchem
  3
AecBase60
 90
      129
280
     0
281
     0
  0
CLASS
  1
AEC_DISPREPAECDBDISPREPMASSELEMPLAN50
  2
AecDbDispRepMassElemPlan50
  3
AecArchDACHBase60
 90
      129
280
     0
281
     0
  0
CLASS
  1
AEC_DISPROPSMASSELEMPLANCOMMON
  2
AecDbDispPropsMassElemPlanCommon
  3
AecArchDACHBase60
 90
      129
280
     0
281
     0
  0
CLASS
  1
AEC_DISPREPAECDBDISPREPMASSELEMPLAN100
  2
AecDbDispRepMassElemPlan100
  3
AecArchDACHBase60
 90
      129
280
     0
281
     0
  0
CLASS
  1
AEC_DISP_REP_MASS_ELEM_RCP
  2
AecDbDispRepMassElemRcp
  3
AecArchBase60
 90
      129
280
     0
281
     0
  0
CLASS
  1
AEC_DISP_REP_MASS_GROUP_MODEL
  2
AecDbDispRepMassGroupModel
  3
AecBase60
 90
      129
280
     0
281
     0
  0
CLASS
  1
AEC_DISP_PROPS_MASS_GROUP
  2
AecDbDispPropsMassGroup
  3
AecBase60
 90
      129
280
     0
281
     0
  0
CLASS
  1
AEC_DISP_REP_MASS_GROUP_PLAN
  2
AecDbDispRepMassGroupPlan
  3
AecBase60
 90
      129
280
     0
281
     0
  0
CLASS
  1
AEC_DISPREPAECDBDISPREPMASSGROUPPLAN50
  2
AecDbDispRepMassGroupPlan50
  3
AecArchDACHBase60
 90
      129
280
     0
281
     0
  0
CLASS
  1
AEC_DISPROPSMASSGROUPPLANCOMMON
  2
AecDbDispPropsMassGroupPlanCommon
  3
AecArchDACHBase60
 90
      129
280
     0
281
     0
  0
CLASS
  1
AEC_DISPREPAECDBDISPREPMASSGROUPPLAN100
  2
AecDbDispRepMassGroupPlan100
  3
AecArchDACHBase60
 90
      129
280
     0
281
     0
  0
CLASS
  1
AEC_DISP_REP_MASS_GROUP_RCP
  2
AecDbDispRepMassGroupRcp
  3
AecArchBase60
 90
      129
280
     0
281
     0
  0
CLASS
  1
AEC_DISP_REP_MVBLOCK_REF
  2
AecDbDispRepMvBlockRef
  3
AecBase60
 90
      129
280
     0
281
     0
  0
CLASS
  1
AEC_DISP_REP_MVBLOCK_REF_MODEL
  2
AecDbDispRepMvBlockRefModel
  3
AecBase60
 90
      129
280
     0
281
     0
  0
CLASS
  1
AEC_AECDBDISPREPMVBLOCKREFPLAN100
  2
AecDbDispRepMvBlockRefPlan100
  3
AecBase60
 90
      129
280
     0
281
     0
  0
CLASS
  1
AEC_AECDBDISPREPMVBLOCKREFPLAN50
  2
AecDbDispRepMvBlockRefPlan50
  3
AecBase60
 90
      129
280
     0
281
     0
  0
CLASS
  1
AEC_DISP_REP_POLYGON_MODEL
  2
AecDbDispRepPolygonModel
  3
AecBase60
 90
      129
280
     0
281
     0
  0
CLASS
  1
AEC_DISP_PROPS_POLYGON_MODEL
  2
AecDbDispPropsPolygonModel
  3
AecBase60
 90
      129
280
     0
281
     0
  0
CLASS
  1
AEC_DISP_REP_POLYGON_TRUECOLOUR
  2
AecDbDispRepPolygonTrueColour
  3
AecBase60
 90
      129
280
     0
281
     0
  0
CLASS
  1
AEC_DISP_PROPS_POLYGON_TRUECOLOUR
  2
AecDbDispPropsPolygonTrueColour
  3
AecBase60
 90
      129
280
     0
281
     0
  0
CLASS
  1
AEC_DISP_REP_SLICE
  2
AecDbDispRepSlice
  3
AecBase60
 90
      129
280
     0
281
     0
  0
CLASS
  1
AEC_DISP_PROPS_SLICE
  2
AecDbDispPropsSlice
  3
AecBase60
 90
      129
280
     0
281
     0
  0
CLASS
  1
AEC_DISP_REP_ANCHOR
  2
AecDbDispRepAnchor
  3
AecBase60
 90
      129
280
     0
281
     0
  0
CLASS
  1
AEC_DISP_REP_ANCHOR_ENT_TO_NODE
  2
AecDbDispRepAnchorEntToNode
  3
AecBase60
 90
      129
280
     0
281
     0
  0
CLASS
  1
AEC_DISP_PROPS_ENT
  2
AecDbDispPropsEnt
  3
AecBase60
 90
      129
280
     0
281
     0
  0
CLASS
  1
AEC_DISP_REP_MATERIAL
  2
AecDbDispRepMaterial
  3
AecBase60
 90
      129
280
     0
281
     0
  0
CLASS
  1
AEC_DISP_PROPS_MATERIAL
  2
AecDbDispPropsMaterial
  3
AecBase60
 90
      129
280
     0
281
     0
  0
CLASS
  1
AEC_DISP_REP_EDITINPLACEPROFILE
  2
AecDbDispRepEditInPlaceProfile
  3
AecBase60
 90
      129
280
     0
281
     0
  0
CLASS
  1
AEC_DISP_PROPS_EDITINPLACEPROFILE_MODEL
  2
AecDbDispPropsEditInPlaceProfile
  3
AecBase60
 90
      129
280
     0
281
     0
  0
CLASS
  1
SUN
  2
AcDbSun
  3
SCENEOE
 90
     1153
280
     0
281
     0
  0
ENDSEC
  0
SECTION
  2
TABLES
  0
TABLE
  2
VPORT
  5
8
330
0
100
AcDbSymbolTable
 70
     1
  0
VPORT
  5
68DD6
330
8
100
AcDbSymbolTableRecord
100
AcDbViewportTableRecord
  2
*Active
 70
     0
 10
0.0
 20
0.0
 11
1.0
 21
1.0
 12
5118.134925435181
 22
-11431.71108268603
 13
0.0
 23
0.0
 14
1.0
 24
1.0
 15
20.0
 25
20.0
 16
0.0
 26
0.0
 36
1.0
 17
0.0
 27
0.0
 37
0.0
 40
338.6381009178278
 41
2.027568922305764
 42
50.0
 43
0.0
 44
0.0
 50
0.0
 51
0.0
 71
    16
 72
  2000
 73
     1
 74
     0
 75
     0
 76
     0
 77
     0
 78
     1
281
     0
 65
     1
110
0.0
120
0.0
130
0.0
111
1.0
121
0.0
131
0.0
112
0.0
122
1.0
132
0.0
 79
     0
146
0.0
  0
ENDTAB
  0
TABLE
  2
LTYPE
  5
5
330
0
100
AcDbSymbolTable
 70
     4
  0
LTYPE
  5
12
330
5
100
AcDbSymbolTableRecord
100
AcDbLinetypeTableRecord
  2
BYBLOCK
 70
     0
  3

 72
    65
 73
     0
 40
0.0
  0
LTYPE
  5
13
330
5
100
AcDbSymbolTableRecord
100
AcDbLinetypeTableRecord
  2
BYLAYER
 70
     0
  3

 72
    65
 73
     0
 40
0.0
  0
LTYPE
  5
14
330
5
100
AcDbSymbolTableRecord
100
AcDbLinetypeTableRecord
  2
CONTINUOUS
 70
     0
  3
Solid line
 72
    65
 73
     0
 40
0.0
  0
LTYPE
  5
3D
330
5
100
AcDbSymbolTableRecord
100
AcDbLinetypeTableRecord
  2
PHANTOM
 70
     0
  3
_____ _ _ _____ _ _ _____ _ _ _____ _ _ ____
 72
    65
 73
     6
 40
2.5
 49
1.25
 74
     0
 49
-0.25
 74
     0
 49
0.25
 74
     0
 49
-0.25
 74
     0
 49
0.25
 74
     0
 49
-0.25
 74
     0
  0
LTYPE
  5
40D2
330
5
100
AcDbSymbolTableRecord
100
AcDbLinetypeTableRecord
  2
CENTER
 70
     0
  3
____ _ ____ _ ____ _ ____ _ ____ _ ____ _ ____ 
 72
    65
 73
     4
 40
2.0
 49
1.25
 74
     0
 49
-0.25
 74
     0
 49
0.25
 74
     0
 49
-0.25
 74
     0
  0
LTYPE
  5
A244
330
5
100
AcDbSymbolTableRecord
100
AcDbLinetypeTableRecord
  2
HIDDEN
 70
     0
  3
_ _ _ _ _ _ _ _ _ _ _ _ _ _ _ _ _ _ _ _ _ _ _
 72
    65
 73
     2
 40
0.375
 49
0.25
 74
     0
 49
-0.125
 74
     0
  0
ENDTAB
  0
TABLE
  2
LAYER
  5
2
102
{ACAD_XDICTIONARY
360
650E4
102
}
330
0
100
AcDbSymbolTable
 70
    15
  0
LAYER
  5
F
102
{ACAD_XDICTIONARY
360
663B9
102
}
330
2
100
AcDbSymbolTableRecord
100
AcDbLayerTableRecord
  2
0
 70
     0
 62
     7
  6
CONTINUOUS
370
    -3
390
40CA
  0
LAYER
  5
4C
102
{ACAD_XDICTIONARY
360
663C1
102
}
330
2
100
AcDbSymbolTableRecord
100
AcDbLayerTableRecord
  2
寸法線
 70
     0
 62
     7
  6
CONTINUOUS
370
    -3
390
40CA
  0
LAYER
  5
4D
102
{ACAD_XDICTIONARY
360
663C3
102
}
330
2
100
AcDbSymbolTableRecord
100
AcDbLayerTableRecord
  2
姿図
 70
     0
 62
     8
  6
CONTINUOUS
370
    -3
390
40CA
  0
LAYER
  5
4E
330
2
100
AcDbSymbolTableRecord
100
AcDbLayerTableRecord
  2
DEFPOINTS
 70
     0
 62
     7
  6
CONTINUOUS
290
     0
370
    -3
390
40CA
  0
LAYER
  5
40D4
102
{ACAD_XDICTIONARY
360
663C7
102
}
330
2
100
AcDbSymbolTableRecord
100
AcDbLayerTableRecord
  2
文字
 70
     0
 62
     7
  6
CONTINUOUS
370
    -3
390
40CA
  0
LAYER
  5
6552A
102
{ACAD_XDICTIONARY
360
663CD
102
}
330
2
100
AcDbSymbolTableRecord
100
AcDbLayerTableRecord
  2
C-SUNPO
 70
     0
 62
     7
  6
CONTINUOUS
370
    -3
390
40CA
  0
ENDTAB
  0
TABLE
  2
STYLE
  5
3
330
0
100
AcDbSymbolTable
 70
     1
  0
STYLE
  5
10
330
3
100
AcDbSymbolTableRecord
100
AcDbTextStyleTableRecord
  2
STANDARD
 70
     0
 40
0.0
 41
1.0
 50
0.0
 71
     0
 42
6.0
  3
MONOTXT
  4
BIGFONT
  0
ENDTAB
  0
TABLE
  2
VIEW
  5
6
330
0
100
AcDbSymbolTable
 70
     1
  0
VIEW
  5
41
330
6
100
AcDbSymbolTableRecord
100
AcDbViewTableRecord
  2
CUT1
 70
     0
 40
612.7795527156796
 10
420.0000000000169
 20
306.3897763578398
 41
840.0000000000338
 11
0.0
 21
0.0
 31
1.0
 12
0.0
 22
0.0
 32
0.0
 42
50.0
 43
0.0
 44
0.0
 50
0.0
 71
     0
281
     0
 72
     0
  0
ENDTAB
  0
TABLE
  2
UCS
  5
7
330
0
100
AcDbSymbolTable
 70
     0
  0
ENDTAB
  0
TABLE
  2
APPID
  5
9
330
0
100
AcDbSymbolTable
 70
    10
  0
APPID
  5
11
330
9
100
AcDbSymbolTableRecord
100
AcDbRegAppTableRecord
  2
ACAD
 70
     0
  0
APPID
  5
6558C
330
9
100
AcDbSymbolTableRecord
100
AcDbRegAppTableRecord
  2
ACAD_MLEADERVER
 70
     0
  0
APPID
  5
65FE6
330
9
100
AcDbSymbolTableRecord
100
AcDbRegAppTableRecord
  2
ACAD_EXEMPT_FROM_CAD_STANDARDS
 70
     0
  0
APPID
  5
67304
330
9
100
AcDbSymbolTableRecord
100
AcDbRegAppTableRecord
  2
ACAD_PSEXT
 70
     0
  0
APPID
  5
6983C
330
9
100
AcDbSymbolTableRecord
100
AcDbRegAppTableRecord
  2
ACAD_DSTYLE_DIMJAG
 70
     0
  0
APPID
  5
6983D
330
9
100
AcDbSymbolTableRecord
100
AcDbRegAppTableRecord
  2
ACAD_DSTYLE_DIMTALN
 70
     0
  0
APPID
  5
6A26D
330
9
100
AcDbSymbolTableRecord
100
AcDbRegAppTableRecord
  2
AcAecLayerStandard
 70
     0
  0
APPID
  5
6A4EF
330
9
100
AcDbSymbolTableRecord
100
AcDbRegAppTableRecord
  2
AECBASE
 70
     0
  0
APPID
  5
6A4F0
330
9
100
AcDbSymbolTableRecord
100
AcDbRegAppTableRecord
  2
AEC_2DSECTION_XDATA
 70
     0
  0
APPID
  5
6A4F1
330
9
100
AcDbSymbolTableRecord
100
AcDbRegAppTableRecord
  2
AEC_MASSGROUP_XDADA
 70
     0
  0
ENDTAB
  0
TABLE
  2
DIMSTYLE
  5
A
330
0
100
AcDbSymbolTable
 70
     5
100
AcDbDimStyleTable
  0
DIMSTYLE
105
1B3A
102
{ACAD_REACTORS
102
}
330
A
100
AcDbSymbolTableRecord
100
AcDbDimStyleTableRecord
  2
STANDARD
 70
     0
 41
10.0
 42
3.0
 43
7.149999999999999
 44
2.0
 73
     0
 74
     0
 77
     3
 78
     8
 79
     2
140
18.0
141
0.0
147
4.0
176
     8
177
     8
178
     0
179
     2
271
     2
272
     2
288
     1
340
10
341
49C3
342
49C3
  0
DIMSTYLE
105
A246
102
{ACAD_REACTORS
102
}
330
A
100
AcDbSymbolTableRecord
100
AcDbDimStyleTableRecord
  2
STANDERD
 70
     0
 40
0.0
 41
4.0
 42
1.5
 43
3.75
 44
1.25
 73
     0
 74
     0
 77
     3
 78
     8
140
5.0
141
0.0
147
2.5
171
     0
173
     1
178
     0
288
     1
340
10
341
49C3
343
49C3
344
49C3
  0
DIMSTYLE
105
6312E
330
A
100
AcDbSymbolTableRecord
100
AcDbDimStyleTableRecord
  2
STANDARD-5
 70
     0
 41
7.5
 42
7.5
 43
1.9
 44
5.0
 73
     0
 74
     0
 77
     1
 78
     8
 79
     2
140
12.5
141
0.0
147
3.0
171
     0
173
     1
176
     8
177
     8
271
     2
178
   256
179
     2
271
     2
272
     2
274
     0
340
10
341
49C3
343
49C3
344
49C3
  0
ENDTAB
  0
TABLE
  2
BLOCK_RECORD
  5
1
330
0
100
AcDbSymbolTable
 70
   169
  0
BLOCK_RECORD
  5
18
330
1
100
AcDbSymbolTableRecord
100
AcDbBlockTableRecord
  2
*MODEL_SPACE
340
40CD
  0
BLOCK_RECORD
  5
15
330
1
100
AcDbSymbolTableRecord
100
AcDbBlockTableRecord
  2
*PAPER_SPACE
340
40CE
  0
BLOCK_RECORD
  5
49C3
330
1
100
AcDbSymbolTableRecord
100
AcDbBlockTableRecord
  2
_OPEN
340
0
102
{BLKREFS
331
5BD73
331
5BD74
331
5BD7C
331
5BD7D
331
5BD85
331
5BD86
331
5BD8E
331
5BD8F
331
5BD97
331
5BD98
331
5BDA0
331
5BDA1
331
5BDA9
331
5BDAA
331
5BDB4
331
5BDB5
331
5BDC6
331
5BDC7
331
5BDCF
331
5BDD0
331
5BDD8
331
5BDD9
331
0
331
62284
331
62285
331
6228F
331
62290
331
62298
331
62299
331
622AC
331
622AD
331
62645
331
62646
331
63051
331
63052
331
6305A
331
6305B
331
63065
331
63066
331
6306E
331
6306F
331
63077
331
63078
331
63080
331
63081
331
6308B
331
6308C
331
63094
331
63095
331
6309D
331
6309E
331
630A6
331
630A7
331
630AF
331
630B0
331
630B8
331
630B9
331
630C1
331
630C2
331
0
331
0
331
0
331
637B6
331
637B7
331
637BF
331
637C0
331
637CA
331
637CB
331
637D5
331
637D6
331
637DE
331
637DF
331
637E7
331
637E8
331
0
331
0
331
0
331
64353
331
64354
331
6435C
331
6435D
331
64365
331
64366
331
64370
331
64371
331
64379
331
6437A
331
64384
331
64385
331
6438F
331
64390
331
64398
331
64399
331
643A1
331
643A2
331
643AA
331
643AB
331
643B3
331
643B4
331
643BC
331
643BD
331
643C5
331
643C6
331
643CE
331
643CF
331
643D7
331
643D8
331
643E2
331
643E3
331
643EB
331
643EC
331
643F6
331
643F7
331
643FF
331
64400
331
65027
331
65028
331
65030
331
65031
331
65039
331
6503A
331
65042
331
65043
331
6504B
331
6504C
331
65054
331
65055
331
65071
331
65072
331
6507A
331
6507B
331
65085
331
65086
331
65097
331
65098
331
650A0
331
650A1
331
650A9
331
650AA
331
650B4
331
650B5
331
0
331
654CE
331
654CF
331
654D7
331
654D8
331
654E0
331
654E1
331
65F52
331
65F53
331
65F5B
331
65F5C
331
65F64
331
65F65
331
65F6D
331
65F6E
331
65F76
331
65F77
331
65F7F
331
65F80
331
65F88
331
65F89
331
65F91
331
65F92
331
65F9C
331
65F9D
331
65FA5
331
65FA6
331
65FAE
331
65FAF
331
65FB9
331
65FBA
331
65FC2
331
65FC3
331
6639F
331
663A0
331
663AA
331
663AB
331
663B3
331
663B4
331
66DF3
331
66DF4
331
66DFC
331
66DFD
331
66E05
331
66E06
331
66E0E
331
66E0F
331
66E17
331
66E18
331
66E20
331
66E21
331
66E29
331
66E2A
331
66E32
331
66E33
331
66E3D
331
66E3E
331
66E46
331
66E47
331
66E51
331
66E52
331
66E5A
331
66E5B
331
66E63
331
66E64
331
66E6E
331
66E6F
331
66E77
331
66E78
331
66E80
331
66E81
331
68271
331
68272
331
6827A
331
6827B
331
68283
331
68284
331
6828C
331
6828D
331
68295
331
68296
331
6829E
331
6829F
331
682A7
331
682A8
331
682B0
331
682B1
331
682B9
331
682BA
331
682C2
331
682C3
331
682CD
331
682CE
331
682D6
331
682D7
331
682E1
331
682E2
331
682EA
331
682EB
331
682F5
331
682F6
331
682FE
331
682FF
331
68CCD
331
68CCE
331
68CD6
331
68CD7
331
68CDF
331
68CE0
331
68CEA
331
68CEB
331
68CF3
331
68CF4
331
68CFC
331
68CFD
331
68D05
331
68D06
331
68D0E
331
68D0F
331
68D17
331
68D18
331
68D20
331
68D21
331
68D29
331
68D2A
331
68D32
331
68D33
331
68D3B
331
68D3C
331
68D44
331
68D45
331
68D51
331
68D52
331
68D5A
331
68D5B
331
697A4
331
697A5
331
697AD
331
697AE
331
697B6
331
697B7
331
697C1
331
697C2
331
697CA
331
697CB
331
697D3
331
697D4
331
697DC
331
697DD
331
697E5
331
697E6
331
697EE
331
697EF
331
697F9
331
697FA
331
69802
331
69803
331
6980B
331
6980C
331
69814
331
69815
331
6981D
331
6981E
331
69826
331
69827
331
6982F
331
69830
331
6A1A3
331
6A1A4
331
6A1AD
331
6A1AE
331
6A1B7
331
6A1B8
331
6A1C1
331
6A1C2
331
6A1CB
331
6A1CC
331
6A1D5
331
6A1D6
331
6A1DF
331
6A1E0
331
6A1E9
331
6A1EA
331
6A1F3
331
6A1F4
331
6A1FD
331
6A1FE
331
6A207
331
6A208
331
6A213
331
6A214
331
6A21F
331
6A220
331
6A229
331
6A22A
331
6A236
331
6A237
331
6A240
331
6A241
102
}
  0
ENDTAB
  0
ENDSEC
  0
SECTION
  2
BLOCKS
  0
BLOCK
  5
52
330
18
100
AcDbEntity
  8
0
100
AcDbBlockBegin
  2
*MODEL_SPACE
 70
     0
 10
0.0
 20
0.0
 30
0.0
  3
*MODEL_SPACE
  1
*MODEL_SPACE
  0
ENDBLK
  5
53
330
18
100
AcDbEntity
  8
0
100
AcDbBlockEnd
  0
BLOCK
  5
50
330
15
100
AcDbEntity
 67
     1
  8
0
100
AcDbBlockBegin
  2
*PAPER_SPACE
 70
     0
 10
0.0
 20
0.0
 30
0.0
  3
*PAPER_SPACE
  1
*PAPER_SPACE
  0
ENDBLK
  5
51
330
15
100
AcDbEntity
 67
     1
  8
0
100
AcDbBlockEnd
  0
BLOCK
  5
49C7
330
49C3
100
AcDbEntity
  8
0
100
AcDbBlockBegin
  2
_OPEN
 70
     0
 10
0.0
 20
0.0
 30
0.0
  3
_OPEN
  1
_OPEN
  0
LINE
  5
49C4
330
49C3
100
AcDbEntity
  8
0
  6
ByBlock
 62
     0
100
AcDbLine
 10
-1.0
 20
0.1666666666666667
 30
0.0
 11
0.0
 21
0.0
 31
0.0
  0
LINE
  5
49C5
330
49C3
100
AcDbEntity
  8
0
  6
ByBlock
 62
     0
100
AcDbLine
 10
0.0
 20
0.0
 30
0.0
 11
-1.0
 21
-0.1666666666666667
 31
0.0
  0
LINE
  5
49C6
330
49C3
100
AcDbEntity
  8
0
  6
ByBlock
 62
     0
100
AcDbLine
 10
0.0
 20
0.0
 30
0.0
 11
-1.0
 21
0.0
 31
0.0
  0
ENDBLK
  5
49C8
330
49C3
100
AcDbEntity
  8
0
100
AcDbBlockEnd
  0
ENDSEC
  0
SECTION
  2
ENTITIES
  0
TEXT
  5
6A026
330
18
100
AcDbEntity
  8
文字
100
AcDbText
 10
4928.15392543518
 20
-11597.7101517634
 30
0.0
 40
29.997
  1
SX-LB146S/300
100
AcDbText
  0
LINE
  5
6A02C
330
18
100
AcDbEntity
  8
姿図
100
AcDbLine
 10
5129.473248641408
 20
-11284.1337703568
 30
0.0
 11
5213.221626892623
 21
-11356.31305121696
 31
0.0
  0
LINE
  5
6A02D
330
18
100
AcDbEntity
  8
姿図
100
AcDbLine
 10
5129.473248641408
 20
-11281.50899520533
 30
0.0
 11
5213.221626892623
 21
-11353.6882760655
 31
0.0
  0
LINE
  5
6A02E
330
18
100
AcDbEntity
  8
姿図
100
AcDbLine
 10
5129.473248641408
 20
-11292.00809581117
 30
0.0
 11
5213.221626892623
 21
-11364.18737667134
 31
0.0
  0
LINE
  5
6A02F
330
18
100
AcDbEntity
  8
姿図
100
AcDbLine
 10
5226.458171664878
 20
-11413.91970422545
 30
0.0
 11
5113.975045871653
 21
-11318.3182350382
 31
0.0
  0
LINE
  5
6A030
330
18
100
AcDbEntity
  8
姿図
100
AcDbLine
 10
5195.240913588189
 20
-11475.9848816548
 30
0.0
 11
5083.144961402098
 21
-11380.82436953431
 31
0.0
  0
LINE
  5
6A031
330
18
100
AcDbEntity
  8
姿図
100
AcDbLine
 10
5195.240913588176
 20
-11468.7611417592
 30
0.0
 11
5083.144961402098
 21
-11373.60062963872
 31
0.0
  0
LINE
  5
6A032
330
18
100
AcDbEntity
  8
姿図
100
AcDbLine
 10
5226.458171664878
 20
-11464.63544839107
 30
0.0
 11
5113.975045871653
 21
-11369.03397920381
 31
0.0
  0
LINE
  5
6A033
330
18
100
AcDbEntity
  8
姿図
100
AcDbLine
 10
5226.458171664878
 20
-11461.87533082209
 30
0.0
 11
5113.975045871653
 21
-11366.27386163484
 31
0.0
  0
LINE
  5
6A034
330
18
100
AcDbEntity
  8
姿図
100
AcDbLine
 10
5226.458171664878
 20
-11454.21257990559
 30
0.0
 11
5113.975045871653
 21
-11358.61111071834
 31
0.0
  0
LINE
  5
6A035
330
18
100
AcDbEntity
  8
姿図
100
AcDbLine
 10
5226.458171664878
 20
-11450.76180465842
 30
0.0
 11
5113.975045871653
 21
-11355.16033547117
 31
0.0
  0
LINE
  5
6A036
330
18
100
AcDbEntity
  8
姿図
100
AcDbLine
 10
5226.458171664878
 20
-11445.89012195655
 30
0.0
 11
5113.975045871653
 21
-11350.28865276929
 31
0.0
  0
LINE
  5
6A037
330
18
100
AcDbEntity
  8
姿図
100
AcDbLine
 10
5226.458171664878
 20
-11441.01843925466
 30
0.0
 11
5113.975045871653
 21
-11345.41697006741
 31
0.0
  0
LINE
  5
6A038
330
18
100
AcDbEntity
  8
姿図
100
AcDbLine
 10
5226.458171664878
 20
-11436.14675655278
 30
0.0
 11
5113.975045871653
 21
-11340.54528736553
 31
0.0
  0
LINE
  5
6A039
330
18
100
AcDbEntity
  8
姿図
100
AcDbLine
 10
5226.458171664878
 20
-11431.2750738509
 30
0.0
 11
5113.975045871653
 21
-11335.67360466365
 31
0.0
  0
LINE
  5
6A03A
330
18
100
AcDbEntity
  8
姿図
100
AcDbLine
 10
5226.458171664878
 20
-11426.40339114902
 30
0.0
 11
5113.975045871653
 21
-11330.80192196177
 31
0.0
  0
LINE
  5
6A03B
330
18
100
AcDbEntity
  8
姿図
100
AcDbLine
 10
5226.458171664878
 20
-11421.83618861601
 30
0.0
 11
5113.975045871653
 21
-11326.23471942875
 31
0.0
  0
LINE
  5
6A03C
330
18
100
AcDbEntity
  8
姿図
100
AcDbLine
 10
5226.458171664878
 20
-11452.4364455872
 30
0.0
 11
5113.975045871653
 21
-11356.83497639995
 31
0.0
  0
LINE
  5
6A03D
330
18
100
AcDbEntity
  8
姿図
100
AcDbLine
 10
5226.458171664881
 20
-11447.56476288532
 30
0.0
 11
5113.975045871654
 21
-11351.96329369807
 31
0.0
  0
LINE
  5
6A03E
330
18
100
AcDbEntity
  8
姿図
100
AcDbLine
 10
5226.458171664881
 20
-11442.69308018344
 30
0.0
 11
5113.975045871654
 21
-11347.09161099619
 31
0.0
  0
LINE
  5
6A03F
330
18
100
AcDbEntity
  8
姿図
100
AcDbLine
 10
5226.458171664881
 20
-11437.82139748156
 30
0.0
 11
5113.975045871654
 21
-11342.2199282943
 31
0.0
  0
LINE
  5
6A040
330
18
100
AcDbEntity
  8
姿図
100
AcDbLine
 10
5226.458171664881
 20
-11432.94971477967
 30
0.0
 11
5113.975045871654
 21
-11337.34824559242
 31
0.0
  0
LINE
  5
6A041
330
18
100
AcDbEntity
  8
姿図
100
AcDbLine
 10
5226.458171664881
 20
-11428.07803207779
 30
0.0
 11
5113.975045871654
 21
-11332.47656289054
 31
0.0
  0
LINE
  5
6A042
330
18
100
AcDbEntity
  8
姿図
100
AcDbLine
 10
5226.458171664881
 20
-11423.86605640846
 30
0.0
 11
5113.975045871654
 21
-11328.26458722121
 31
0.0
  0
LINE
  5
6A043
330
18
100
AcDbEntity
  8
姿図
100
AcDbLine
 10
5225.1602438977
 20
-11424.00715465543
 30
0.0
 11
5113.975045871653
 21
-11329.50881805422
 31
0.0
  0
LINE
  5
6A044
330
18
100
AcDbEntity
  8
姿図
100
AcDbLine
 10
5225.280501689586
 20
-11455.98871422399
 30
0.0
 11
5113.975045871653
 21
-11361.38816832244
 31
0.0
  0
LINE
  5
6A045
330
18
100
AcDbEntity
  8
姿図
100
AcDbLine
 10
5225.401628117338
 20
-11415.9495720179
 30
0.0
 11
5113.975045871654
 21
-11321.2460785465
 31
0.0
  0
LINE
  5
6A046
330
18
100
AcDbEntity
  8
姿図
100
AcDbLine
 10
5226.458171664878
 20
-11415.9495720179
 30
0.0
 11
5113.975045871656
 21
-11320.34810283065
 31
0.0
  0
LINE
  5
6A047
330
18
100
AcDbEntity
  8
姿図
100
AcDbLine
 10
5225.308633957653
 20
-11443.81628466833
 30
0.0
 11
5113.975045871653
 21
-11349.1918286368
 31
0.0
  0
LINE
  5
6A048
330
18
100
AcDbEntity
  8
姿図
100
AcDbLine
 10
5195.240913588176
 20
-11475.9848816548
 30
0.0
 11
5180.066248460825
 21
-11478.68075496354
 31
0.0
  0
LINE
  5
6A04A
330
18
100
AcDbEntity
  8
姿図
100
AcDbLine
 10
4969.907506513348
 20
-11389.56647740614
 30
0.0
 11
4969.907506513348
 21
-11313.0962967321
 31
0.0
  0
LINE
  5
6A04B
330
18
100
AcDbEntity
  8
姿図
100
AcDbLine
 10
4969.907506513345
 20
-11313.0962967321
 30
0.0
 11
5061.448405088862
 21
-11390.80526778627
 31
0.0
  0
LINE
  5
6A04C
330
18
100
AcDbEntity
  8
姿図
100
AcDbLine
 10
5129.473248641408
 20
-11331.4904414834
 30
0.0
 11
5129.473248641408
 21
-11278.88422005387
 31
0.0
  0
LINE
  5
6A04D
330
18
100
AcDbEntity
  8
姿図
100
AcDbLine
 10
5091.975045871653
 20
-11368.15098144233
 30
0.0
 11
5091.975045871654
 21
-11289.93361539062
 31
0.0
  0
LINE
  5
6A04E
330
18
100
AcDbEntity
  8
姿図
100
AcDbLine
 10
5108.975045871654
 20
-11332.84290644589
 30
0.0
 11
5108.975045871654
 21
-11266.60029459745
 31
0.0
  0
LINE
  5
6A04F
330
18
100
AcDbEntity
  8
姿図
100
AcDbLine
 10
5110.6244867246
 20
-11320.94335042907
 30
0.0
 11
5110.6244867246
 21
-11318.91348263662
 31
0.0
  0
LINE
  5
6A050
330
18
100
AcDbEntity
  8
姿図
100
AcDbLine
 10
5113.975045871653
 20
-11321.2460785465
 30
0.0
 11
5113.975045871656
 21
-11265.71201360867
 31
0.0
  0
LINE
  5
6A051
330
18
100
AcDbEntity
  8
姿図
100
AcDbLine
 10
4969.389741220218
 20
-11389.92902056742
 30
0.0
 11
4969.389741220218
 21
-11312.7116545157
 31
0.0
  0
LINE
  5
6A052
330
18
100
AcDbEntity
  8
姿図
100
AcDbLine
 10
4954.389741220218
 20
-11394.62518007688
 30
0.0
 11
4954.389741220218
 21
-11297.06333205071
 31
0.0
  0
LINE
  5
6A053
330
18
100
AcDbEntity
  8
姿図
100
AcDbLine
 10
5061.448405088862
 20
-11390.80526778626
 30
0.0
 11
5074.022692731148
 21
-11388.57136765425
 31
0.0
  0
LINE
  5
6A054
330
18
100
AcDbEntity
  8
姿図
100
AcDbLine
 10
5061.448405088862
 20
-11493.95045611351
 30
0.0
 11
5095.624304988536
 21
-11487.87889568245
 31
0.0
  0
LINE
  5
6A055
330
18
100
AcDbEntity
  8
姿図
100
AcDbLine
 10
5117.036424584125
 20
-11489.87839381868
 30
0.0
 11
5005.841419724294
 21
-11395.46832797026
 31
0.0
  0
LINE
  5
6A056
330
18
100
AcDbEntity
  8
姿図
100
AcDbLine
 10
5101.276843755509
 20
-11492.67818102691
 30
0.0
 11
4990.081838895682
 21
-11398.2681151785
 31
0.0
  0
LINE
  5
6A057
330
18
100
AcDbEntity
  8
姿図
100
AcDbLine
 10
5117.036424584127
 20
-11487.1182762497
 30
0.0
 11
5005.841419724296
 21
-11392.70821040129
 31
0.0
  0
LINE
  5
6A058
330
18
100
AcDbEntity
  8
姿図
100
AcDbLine
 10
5061.448405088862
 20
-11439.92129480664
 30
0.0
 11
5061.448405088862
 21
-11390.80526778626
 31
0.0
  0
LINE
  5
6A059
330
18
100
AcDbEntity
  8
姿図
100
AcDbLine
 10
5005.841419724294
 20
-11395.46832797026
 30
0.0
 11
4990.081838895682
 21
-11398.2681151785
 31
0.0
  0
LINE
  5
6A05A
330
18
100
AcDbEntity
  8
姿図
100
AcDbLine
 10
4990.081838895682
 20
-11391.04437528291
 30
0.0
 11
4990.081838895682
 21
-11398.2681151785
 31
0.0
  0
LINE
  5
6A05B
330
18
100
AcDbEntity
  8
姿図
100
AcDbLine
 10
4995.447377466205
 20
-11388.53242815034
 30
0.0
 11
5005.841419724294
 21
-11392.70821040129
 31
0.0
  0
LINE
  5
6A05C
330
18
100
AcDbEntity
  8
姿図
100
AcDbLine
 10
4995.074589201374
 20
-11389.46034458495
 30
0.0
 11
5001.206141160931
 21
-11391.92368129339
 31
0.0
  0
LINE
  5
6A05D
330
18
100
AcDbEntity
  8
姿図
100
AcDbLine
 10
4992.841956464657
 20
-11387.79390572128
 30
0.0
 11
4992.841956464658
 21
-11394.4209883822
 31
0.0
  0
LINE
  5
6A05E
330
18
100
AcDbEntity
  8
姿図
100
AcDbLine
 10
4995.074589201374
 20
-11389.46034458495
 30
0.0
 11
4995.447377466205
 21
-11388.53242815034
 31
0.0
  0
LINE
  5
6A05F
330
18
100
AcDbEntity
  8
姿図
100
AcDbLine
 10
4992.841956464658
 20
-11390.55402329025
 30
0.0
 11
4997.568656564065
 21
-11394.17791804927
 31
0.0
  0
LINE
  5
6A060
330
18
100
AcDbEntity
  8
姿図
100
AcDbLine
 10
5001.8333528961
 20
-11392.85159772799
 30
0.0
 11
5001.8333528961
 21
-11393.00126727743
 31
0.0
  0
ARC
  5
6A061
330
18
100
AcDbEntity
  8
姿図
100
AcDbCircle
 10
5001.3333528961
 20
-11393.00126727743
 30
0.0
 40
0.5
100
AcDbArc
 50
280.0738452397017
 51
0.0
  0
ARC
  5
6A062
330
18
100
AcDbEntity
  8
姿図
100
AcDbCircle
 10
5000.8333528961
 20
-11392.85159772799
 30
0.0
 40
1.0
100
AcDbArc
 50
0.0
 51
68.11232009498
  0
LINE
  5
6A063
330
18
100
AcDbEntity
  8
姿図
100
AcDbLine
 10
5001.420811543724
 20
-11393.49355884242
 30
0.0
 11
4993.42941511228
 21
-11394.91327994718
 31
0.0
  0
ARC
  5
6A064
330
18
100
AcDbEntity
  8
姿図
100
AcDbCircle
 10
4993.341956464658
 20
-11394.4209883822
 30
0.0
 40
0.5
100
AcDbArc
 50
180.0
 51
280.0738452397017
  0
LINE
  5
6A065
330
18
100
AcDbEntity
  8
姿図
100
AcDbLine
 10
5005.841419724296
 20
-11392.70821040129
 30
0.0
 11
5005.841419724294
 21
-11395.46832797026
 31
0.0
  0
ELLIPSE
  5
6A066
330
18
100
AcDbEntity
  8
姿図
100
AcDbEllipse
 10
4962.007054336511
 20
-11351.10419138152
 30
0.0
 11
1.557139847723761E-15
 21
3.508473521634053
 31
0.0
210
0.0
220
0.0
230
1.0
 40
0.6840581766403936
 41
0.0834300866107265
 42
3.058162566979068
  0
ELLIPSE
  5
6A067
330
18
100
AcDbEntity
  8
姿図
100
AcDbEllipse
 10
4961.60705433651
 20
-11351.10419138152
 30
0.0
 11
0.0
 21
-3.508473521634005
 31
0.0
210
0.0
220
0.0
230
1.0
 40
0.6840581766403772
 41
0.0
 42
6.283185307179586
  0
ELLIPSE
  5
6A068
330
18
100
AcDbEntity
  8
姿図
100
AcDbEllipse
 10
4962.007054336511
 20
-11382.31593381461
 30
0.0
 11
1.557139847723761E-15
 21
3.508473521634053
 31
0.0
210
0.0
220
0.0
230
1.0
 40
0.6840581766403936
 41
0.0834300866107265
 42
3.058162566979068
  0
ELLIPSE
  5
6A069
330
18
100
AcDbEntity
  8
姿図
100
AcDbEllipse
 10
4961.60705433651
 20
-11382.31593381461
 30
0.0
 11
0.0
 21
-3.508473521634005
 31
0.0
210
0.0
220
0.0
230
1.0
 40
0.6840581766403772
 41
0.0
 42
6.283185307179586
  0
LINE
  5
6A06A
330
18
100
AcDbEntity
  8
姿図
100
AcDbLine
 10
4948.870096350171
 20
-11398.36589676643
 30
0.0
 11
4948.870096350171
 21
-11395.60577919746
 31
0.0
  0
LINE
  5
6A06B
330
18
100
AcDbEntity
  8
姿図
100
AcDbLine
 10
4951.039182073165
 20
-11350.50762653524
 30
0.0
 11
4951.039182073165
 21
-11355.18128546922
 31
0.0
  0
LINE
  5
6A06C
330
18
100
AcDbEntity
  8
姿図
100
AcDbLine
 10
4954.389741220218
 20
-11370.57124673635
 30
0.0
 11
4948.870096350171
 21
-11371.55184585692
 31
0.0
  0
LINE
  5
6A06D
330
18
100
AcDbEntity
  8
姿図
100
AcDbLine
 10
4954.389741220218
 20
-11388.73856347878
 30
0.0
 11
4948.870096350171
 21
-11389.71916259935
 31
0.0
  0
LINE
  5
6A06E
330
18
100
AcDbEntity
  8
姿図
100
AcDbLine
 10
4954.389741220218
 20
-11389.65798883659
 30
0.0
 11
4949.972062953885
 21
-11390.4428167603
 31
0.0
  0
LINE
  5
6A06F
330
18
100
AcDbEntity
  8
姿図
100
AcDbLine
 10
4954.389741220218
 20
-11388.73856347878
 30
0.0
 11
4948.870096350171
 21
-11389.71916259935
 31
0.0
  0
LINE
  5
6A070
330
18
100
AcDbEntity
  8
姿図
100
AcDbLine
 10
4954.389741220218
 20
-11386.96242916038
 30
0.0
 11
4948.870096350171
 21
-11387.94302828096
 31
0.0
  0
LINE
  5
6A071
330
18
100
AcDbEntity
  8
姿図
100
AcDbLine
 10
4954.389741220218
 20
-11385.18629484199
 30
0.0
 11
4948.870096350171
 21
-11386.16689396256
 31
0.0
  0
LINE
  5
6A072
330
18
100
AcDbEntity
  8
姿図
100
AcDbLine
 10
4954.389741220218
 20
-11383.51165391322
 30
0.0
 11
4948.870096350171
 21
-11384.49225303379
 31
0.0
  0
LINE
  5
6A073
330
18
100
AcDbEntity
  8
姿図
100
AcDbLine
 10
4954.389741220218
 20
-11382.41482978073
 30
0.0
 11
4950.688862581336
 21
-11383.07231380807
 31
0.0
  0
LINE
  5
6A074
330
18
100
AcDbEntity
  8
姿図
100
AcDbLine
 10
4954.389741220218
 20
-11380.31461214011
 30
0.0
 11
4948.870096350171
 21
-11381.29521126068
 31
0.0
  0
LINE
  5
6A075
330
18
100
AcDbEntity
  8
姿図
100
AcDbLine
 10
4954.389741220218
 20
-11378.63997121134
 30
0.0
 11
4948.870096350171
 21
-11379.62057033191
 31
0.0
  0
LINE
  5
6A076
330
18
100
AcDbEntity
  8
姿図
100
AcDbLine
 10
4954.389741220218
 20
-11377.54314707885
 30
0.0
 11
4950.688862581336
 21
-11378.20063110619
 31
0.0
  0
LINE
  5
6A077
330
18
100
AcDbEntity
  8
姿図
100
AcDbLine
 10
4954.389741220218
 20
-11375.44292943823
 30
0.0
 11
4948.870096350171
 21
-11376.4235285588
 31
0.0
  0
LINE
  5
6A078
330
18
100
AcDbEntity
  8
姿図
100
AcDbLine
 10
4954.389741220218
 20
-11373.76828850946
 30
0.0
 11
4948.870096350171
 21
-11374.74888763003
 31
0.0
  0
LINE
  5
6A079
330
18
100
AcDbEntity
  8
姿図
100
AcDbLine
 10
4954.389741220218
 20
-11372.67146437697
 30
0.0
 11
4950.688862581336
 21
-11373.32894840431
 31
0.0
  0
LINE
  5
6A07A
330
18
100
AcDbEntity
  8
姿図
100
AcDbLine
 10
4954.389741220218
 20
-11364.0249231057
 30
0.0
 11
4948.870096350171
 21
-11365.00552222627
 31
0.0
  0
LINE
  5
6A07B
330
18
100
AcDbEntity
  8
姿図
100
AcDbLine
 10
4954.389741220218
 20
-11360.82788133259
 30
0.0
 11
4948.870096350171
 21
-11361.80848045316
 31
0.0
  0
LINE
  5
6A07C
330
18
100
AcDbEntity
  8
姿図
100
AcDbLine
 10
4954.389741220218
 20
-11362.92809897321
 30
0.0
 11
4950.688862581336
 21
-11363.58558300055
 31
0.0
  0
LINE
  5
6A07D
330
18
100
AcDbEntity
  8
姿図
100
AcDbLine
 10
4954.389741220218
 20
-11357.82886332738
 30
0.0
 11
4950.323872696693
 21
-11358.55119006984
 31
0.0
  0
LINE
  5
6A07E
330
18
100
AcDbEntity
  8
姿図
100
AcDbLine
 10
4954.389741220218
 20
-11359.15324040381
 30
0.0
 11
4948.870096350171
 21
-11360.13383952439
 31
0.0
  0
LINE
  5
6A07F
330
18
100
AcDbEntity
  8
姿図
100
AcDbLine
 10
4954.389741220218
 20
-11356.61590566325
 30
0.0
 11
4948.870096350171
 21
-11357.59650478383
 31
0.0
  0
LINE
  5
6A080
330
18
100
AcDbEntity
  8
姿図
100
AcDbLine
 10
4954.389741220218
 20
-11354.5860378708
 30
0.0
 11
4948.870096350171
 21
-11355.56663699137
 31
0.0
  0
LINE
  5
6A081
330
18
100
AcDbEntity
  8
姿図
100
AcDbLine
 10
4954.389741220218
 20
-11368.89660580757
 30
0.0
 11
4948.870096350171
 21
-11369.87720492815
 31
0.0
  0
LINE
  5
6A082
330
18
100
AcDbEntity
  8
姿図
100
AcDbLine
 10
4954.389741220218
 20
-11367.79978167509
 30
0.0
 11
4950.688862581336
 21
-11368.45726570243
 31
0.0
  0
LINE
  5
6A083
330
18
100
AcDbEntity
  8
姿図
100
AcDbLine
 10
4954.389741220218
 20
-11365.69956403446
 30
0.0
 11
4948.870096350171
 21
-11366.68016315504
 31
0.0
  0
LINE
  5
6A084
330
18
100
AcDbEntity
  8
姿図
100
AcDbLine
 10
4948.870096350171
 20
-11371.55184585692
 30
0.0
 11
4948.870096350171
 21
-11369.87720492815
 31
0.0
  0
LINE
  5
6A085
330
18
100
AcDbEntity
  8
姿図
100
AcDbLine
 10
4948.870096350171
 20
-11376.4235285588
 30
0.0
 11
4950.688862581336
 21
-11378.20063110619
 31
0.0
  0
LINE
  5
6A086
330
18
100
AcDbEntity
  8
姿図
100
AcDbLine
 10
4948.870096350171
 20
-11371.55184585692
 30
0.0
 11
4950.688862581336
 21
-11373.32894840431
 31
0.0
  0
LINE
  5
6A087
330
18
100
AcDbEntity
  8
姿図
100
AcDbLine
 10
4950.688862581336
 20
-11373.32894840431
 30
0.0
 11
4948.870096350171
 21
-11374.74888763003
 31
0.0
  0
LINE
  5
6A088
330
18
100
AcDbEntity
  8
姿図
100
AcDbLine
 10
4950.688862581336
 20
-11378.20063110619
 30
0.0
 11
4948.870096350171
 21
-11379.62057033191
 31
0.0
  0
LINE
  5
6A089
330
18
100
AcDbEntity
  8
姿図
100
AcDbLine
 10
4948.870096350171
 20
-11381.29521126068
 30
0.0
 11
4950.688862581336
 21
-11383.07231380807
 31
0.0
  0
LINE
  5
6A08A
330
18
100
AcDbEntity
  8
姿図
100
AcDbLine
 10
4950.688862581336
 20
-11383.07231380807
 30
0.0
 11
4948.870096350171
 21
-11384.49225303379
 31
0.0
  0
LINE
  5
6A08B
330
18
100
AcDbEntity
  8
姿図
100
AcDbLine
 10
4948.870096350171
 20
-11376.4235285588
 30
0.0
 11
4948.870096350171
 21
-11374.74888763003
 31
0.0
  0
LINE
  5
6A08C
330
18
100
AcDbEntity
  8
姿図
100
AcDbLine
 10
4948.870096350171
 20
-11381.29521126068
 30
0.0
 11
4948.870096350171
 21
-11379.62057033191
 31
0.0
  0
LINE
  5
6A08D
330
18
100
AcDbEntity
  8
姿図
100
AcDbLine
 10
4948.870096350171
 20
-11386.16689396256
 30
0.0
 11
4948.870096350171
 21
-11384.49225303379
 31
0.0
  0
LINE
  5
6A08E
330
18
100
AcDbEntity
  8
姿図
100
AcDbLine
 10
4948.870096350171
 20
-11387.94302828096
 30
0.0
 11
4948.870096350171
 21
-11389.71916259935
 31
0.0
  0
LINE
  5
6A08F
330
18
100
AcDbEntity
  8
姿図
100
AcDbLine
 10
4948.870096350171
 20
-11389.71916259935
 30
0.0
 11
4949.972062953885
 21
-11390.4428167603
 31
0.0
  0
LINE
  5
6A090
330
18
100
AcDbEntity
  8
姿図
100
AcDbLine
 10
4948.870096350171
 20
-11386.16689396256
 30
0.0
 11
4950.323872696693
 21
-11387.12157924858
 31
0.0
  0
LINE
  5
6A091
330
18
100
AcDbEntity
  8
姿図
100
AcDbLine
 10
4950.323872696693
 20
-11387.12157924858
 30
0.0
 11
4950.323872696693
 21
-11387.68475590285
 31
0.0
  0
LINE
  5
6A092
330
18
100
AcDbEntity
  8
姿図
100
AcDbLine
 10
4948.870096350171
 20
-11357.59650478382
 30
0.0
 11
4948.870096350171
 21
-11355.56663699137
 31
0.0
  0
LINE
  5
6A093
330
18
100
AcDbEntity
  8
姿図
100
AcDbLine
 10
4948.870096350171
 20
-11361.80848045316
 30
0.0
 11
4948.870096350171
 21
-11360.13383952439
 31
0.0
  0
LINE
  5
6A094
330
18
100
AcDbEntity
  8
姿図
100
AcDbLine
 10
4950.323872696693
 20
-11358.55119006984
 30
0.0
 11
4950.323872696693
 21
-11359.87556714628
 31
0.0
  0
LINE
  5
6A095
330
18
100
AcDbEntity
  8
姿図
100
AcDbLine
 10
4948.870096350171
 20
-11361.80848045316
 30
0.0
 11
4950.688862581336
 21
-11363.58558300055
 31
0.0
  0
LINE
  5
6A096
330
18
100
AcDbEntity
  8
姿図
100
AcDbLine
 10
4948.870096350171
 20
-11357.59650478383
 30
0.0
 11
4950.323872696693
 21
-11358.55119006984
 31
0.0
  0
LINE
  5
6A097
330
18
100
AcDbEntity
  8
姿図
100
AcDbLine
 10
4950.688862581336
 20
-11363.58558300055
 30
0.0
 11
4948.870096350171
 21
-11365.00552222627
 31
0.0
  0
LINE
  5
6A098
330
18
100
AcDbEntity
  8
姿図
100
AcDbLine
 10
4948.870096350171
 20
-11366.68016315504
 30
0.0
 11
4950.688862581336
 21
-11368.45726570243
 31
0.0
  0
LINE
  5
6A099
330
18
100
AcDbEntity
  8
姿図
100
AcDbLine
 10
4950.688862581336
 20
-11368.45726570243
 30
0.0
 11
4948.870096350171
 21
-11369.87720492815
 31
0.0
  0
LINE
  5
6A09A
330
18
100
AcDbEntity
  8
姿図
100
AcDbLine
 10
4948.870096350171
 20
-11366.68016315504
 30
0.0
 11
4948.870096350171
 21
-11365.00552222627
 31
0.0
  0
LINE
  5
6A09B
330
18
100
AcDbEntity
  8
姿図
100
AcDbLine
 10
4954.389741220218
 20
-11346.66955348024
 30
0.0
 11
4948.870096350171
 21
-11347.65015260082
 31
0.0
  0
LINE
  5
6A09C
330
18
100
AcDbEntity
  8
姿図
100
AcDbLine
 10
4954.389741220218
 20
-11349.91237893682
 30
0.0
 11
4950.323872696693
 21
-11350.63470567928
 31
0.0
  0
LINE
  5
6A09D
330
18
100
AcDbEntity
  8
姿図
100
AcDbLine
 10
4954.389741220218
 20
-11348.69942127269
 30
0.0
 11
4948.870096350171
 21
-11349.68002039327
 31
0.0
  0
LINE
  5
6A09E
330
18
100
AcDbEntity
  8
姿図
100
AcDbLine
 10
4948.870096350171
 20
-11349.68002039327
 30
0.0
 11
4948.870096350171
 21
-11347.65015260082
 31
0.0
  0
LINE
  5
6A09F
330
18
100
AcDbEntity
  8
姿図
100
AcDbLine
 10
4948.870096350171
 20
-11349.68002039327
 30
0.0
 11
4950.323872696693
 21
-11350.63470567928
 31
0.0
  0
LINE
  5
6A0A0
330
18
100
AcDbEntity
  8
姿図
100
AcDbLine
 10
4954.389741220218
 20
-11394.62518007688
 30
0.0
 11
4948.870096350171
 21
-11395.60577919746
 31
0.0
  0
LINE
  5
6A0A1
330
18
100
AcDbEntity
  8
姿図
100
AcDbLine
 10
4949.972062953885
 20
-11390.4428167603
 30
0.0
 11
4949.972062953885
 21
-11395.41000800059
 31
0.0
  0
LINE
  5
6A0A2
330
18
100
AcDbEntity
  8
姿図
100
AcDbLine
 10
4969.389741220218
 20
-11389.92902056742
 30
0.0
 11
4954.389741220218
 21
-11392.59386353375
 31
0.0
  0
LINE
  5
6A0A3
330
18
100
AcDbEntity
  8
姿図
100
AcDbLine
 10
4990.081838895682
 20
-11391.04437528291
 30
0.0
 11
4948.870096350171
 21
-11398.36589676643
 31
0.0
  0
LINE
  5
6A0A4
330
18
100
AcDbEntity
  8
姿図
100
AcDbLine
 10
4992.841956464657
 20
-11387.79390572128
 30
0.0
 11
4954.389741220218
 21
-11394.62518007688
 31
0.0
  0
LINE
  5
6A0A5
330
18
100
AcDbEntity
  8
姿図
100
AcDbLine
 10
5061.448405088862
 20
-11493.95045611351
 30
0.0
 11
4948.870096350171
 21
-11398.36589676643
 31
0.0
  0
LINE
  5
6A0A6
330
18
100
AcDbEntity
  8
姿図
100
AcDbLine
 10
4969.907506513348
 20
-11389.56647740614
 30
0.0
 11
4969.389741220218
 21
-11389.92902056742
 31
0.0
  0
ELLIPSE
  5
6A0A7
330
18
100
AcDbEntity
  8
姿図
100
AcDbEllipse
 10
5099.808932790324
 20
-11357.83457604493
 30
0.0
 11
1.557139847723761E-15
 21
3.508473521634053
 31
0.0
210
0.0
220
0.0
230
1.0
 40
0.6840581766403936
 41
0.0834300866107265
 42
3.058162566979068
  0
ELLIPSE
  5
6A0A8
330
18
100
AcDbEntity
  8
姿図
100
AcDbEllipse
 10
5099.408932790325
 20
-11357.83457604493
 30
0.0
 11
0.0
 21
-3.508473521634005
 31
0.0
210
0.0
220
0.0
230
1.0
 40
0.6840581766403772
 41
0.0
 42
6.283185307179586
  0
LINE
  5
6A0A9
330
18
100
AcDbEntity
  8
姿図
  6
Continuous
370
     0
100
AcDbLine
 10
5113.975045871653
 20
-11340.80622018556
 30
0.0
 11
5106.916281813955
 21
-11335.29533275049
 31
0.0
  0
LINE
  5
6A0AA
330
18
100
AcDbEntity
  8
姿図
  6
Continuous
370
     0
100
AcDbLine
 10
5113.975045871653
 20
-11340.5524867115
 30
0.0
 11
5107.039358303387
 21
-11335.13768701554
 31
0.0
  0
ARC
  5
6A0AB
330
18
100
AcDbEntity
  8
姿図
  6
Continuous
370
     0
100
AcDbCircle
 10
5107.216057503153
 20
-11332.20713528336
 30
0.0
 40
0.5871021973724699
100
AcDbArc
 50
43.97061442794539
 51
173.048143944115
  0
LINE
  5
6A0AC
330
18
100
AcDbEntity
  8
姿図
  6
Continuous
370
     0
100
AcDbLine
 10
5106.458803935214
 20
-11334.25079155946
 30
0.0
 11
5106.633271561112
 21
-11332.13607519665
 31
0.0
  0
ARC
  5
6A0AD
330
18
100
AcDbEntity
  8
姿図
  6
Continuous
370
     0
100
AcDbCircle
 10
5107.654740750547
 20
-11334.34945834077
 30
0.0
 40
1.2
100
AcDbArc
 50
175.2836838794517
 51
232.0202851621551
  0
LINE
  5
6A0AE
330
18
100
AcDbEntity
  8
姿図
  6
Continuous
370
     0
100
AcDbLine
 10
5106.658126737769
 20
-11334.26723602301
 30
0.0
 11
5106.832594363669
 21
-11332.1525196602
 31
0.0
  0
ARC
  5
6A0AF
330
18
100
AcDbEntity
  8
姿図
  6
Continuous
370
     0
100
AcDbCircle
 10
5107.330901370057
 20
-11332.19363081908
 30
0.0
 40
0.5
100
AcDbArc
 50
52.02028516213367
 51
175.2836838794842
  0
ARC
  5
6A0B0
330
18
100
AcDbEntity
  8
姿図
  6
Continuous
370
     0
100
AcDbCircle
 10
5107.654740750545
 20
-11334.34945834077
 30
0.0
 40
1.0
100
AcDbArc
 50
175.2836838795923
 51
232.0202851621337
  0
LINE
  5
6A0B1
330
18
100
AcDbEntity
  8
姿図
  6
Continuous
370
     0
100
AcDbLine
 10
5113.975045871653
 20
-11336.74648460066
 30
0.0
 11
5107.638592593637
 21
-11331.7995164817
 31
0.0
  0
LINE
  5
6A0B2
330
18
100
AcDbEntity
  8
姿図
  6
Continuous
370
     0
100
AcDbLine
 10
5113.975045871651
 20
-11356.23321540818
 30
0.0
 11
5107.638592593635
 21
-11351.28624728922
 31
0.0
  0
ARC
  5
6A0B3
330
18
100
AcDbEntity
  8
姿図
  6
Continuous
370
     0
100
AcDbCircle
 10
5107.654740750545
 20
-11353.83618914829
 30
0.0
 40
1.0
100
AcDbArc
 50
175.2836838795923
 51
232.0202851621337
  0
ARC
  5
6A0B4
330
18
100
AcDbEntity
  8
姿図
  6
Continuous
370
     0
100
AcDbCircle
 10
5107.330901370057
 20
-11351.6803616266
 30
0.0
 40
0.5
100
AcDbArc
 50
52.02028516213367
 51
175.2836838794842
  0
LINE
  5
6A0B5
330
18
100
AcDbEntity
  8
姿図
  6
Continuous
370
     0
100
AcDbLine
 10
5106.658126737767
 20
-11353.75396683054
 30
0.0
 11
5106.832594363669
 21
-11351.63925046772
 31
0.0
  0
ARC
  5
6A0B6
330
18
100
AcDbEntity
  8
姿図
  6
Continuous
370
     0
100
AcDbCircle
 10
5107.654740750545
 20
-11353.83618914829
 30
0.0
 40
1.2
100
AcDbArc
 50
175.2836838794517
 51
232.0202851621551
  0
LINE
  5
6A0B7
330
18
100
AcDbEntity
  8
姿図
  6
Continuous
370
     0
100
AcDbLine
 10
5106.458803935212
 20
-11353.73752236698
 30
0.0
 11
5106.633271561112
 21
-11351.62280600417
 31
0.0
  0
ARC
  5
6A0B8
330
18
100
AcDbEntity
  8
姿図
  6
Continuous
370
     0
100
AcDbCircle
 10
5107.216057503151
 20
-11351.69386609088
 30
0.0
 40
0.5871021973724699
100
AcDbArc
 50
43.97061442794539
 51
173.048143944115
  0
LINE
  5
6A0B9
330
18
100
AcDbEntity
  8
姿図
  6
Continuous
370
     0
100
AcDbLine
 10
5113.975045871651
 20
-11360.03921751902
 30
0.0
 11
5107.039358303387
 21
-11354.62441782306
 31
0.0
  0
LINE
  5
6A0BA
330
18
100
AcDbEntity
  8
姿図
  6
Continuous
370
     0
100
AcDbLine
 10
5113.975045871651
 20
-11360.29295099308
 30
0.0
 11
5106.916281813955
 21
-11354.78206355801
 31
0.0
  0
LINE
  5
6A0BB
330
18
100
AcDbEntity
  8
姿図
100
AcDbLine
 10
5108.975045871653
 20
-11367.16214262362
 30
0.0
 11
5108.975045871653
 21
-11356.38937283831
 31
0.0
  0
ELLIPSE
  5
6A0BC
330
18
100
AcDbEntity
  8
姿図
100
AcDbEllipse
 10
5099.808932790324
 20
-11326.62283361183
 30
0.0
 11
0.0
 21
-3.508473521634005
 31
0.0
210
0.0
220
0.0
230
1.0
 40
0.6840581766403772
 41
0.0
 42
6.283185307179586
  0
ELLIPSE
  5
6A0BD
330
18
100
AcDbEntity
  8
姿図
100
AcDbEllipse
 10
5100.208932790324
 20
-11326.62283361183
 30
0.0
 11
1.557139847723761E-15
 21
3.508473521634053
 31
0.0
210
0.0
220
0.0
230
1.0
 40
0.6840581766403936
 41
0.0834300866107265
 42
3.058162566979068
  0
LINE
  5
6A0BE
330
18
100
AcDbEntity
  8
姿図
100
AcDbLine
 10
5113.975045871653
 20
-11369.03397920381
 30
0.0
 11
5113.975045871653
 21
-11321.2460785465
 31
0.0
  0
LINE
  5
6A0BF
330
18
100
AcDbEntity
  8
姿図
100
AcDbLine
 10
5110.6244867246
 20
-11352.55854129648
 30
0.0
 11
5112.443252955775
 21
-11354.22920773442
 31
0.0
  0
LINE
  5
6A0C0
330
18
100
AcDbEntity
  8
姿図
100
AcDbLine
 10
5110.6244867246
 20
-11347.6868585946
 30
0.0
 11
5112.443252955775
 21
-11349.35752503254
 31
0.0
  0
LINE
  5
6A0C1
330
18
100
AcDbEntity
  8
姿図
100
AcDbLine
 10
5110.6244867246
 20
-11342.81517589272
 30
0.0
 11
5112.443252955775
 21
-11344.48584233065
 31
0.0
  0
LINE
  5
6A0C2
330
18
100
AcDbEntity
  8
姿図
100
AcDbLine
 10
5112.443252955766
 20
-11349.35752503253
 30
0.0
 11
5112.443252955766
 21
-11350.56078527448
 31
0.0
  0
LINE
  5
6A0C3
330
18
100
AcDbEntity
  8
姿図
100
AcDbLine
 10
5111.730970260966
 20
-11329.8762188258
 30
0.0
 11
5111.730970260966
 21
-11331.20059590224
 31
0.0
  0
LINE
  5
6A0C4
330
18
100
AcDbEntity
  8
姿図
100
AcDbLine
 10
5112.443252955768
 20
-11344.59227844011
 30
0.0
 11
5112.443252955766
 21
-11345.6891025726
 31
0.0
  0
LINE
  5
6A0C5
330
18
100
AcDbEntity
  8
姿図
100
AcDbLine
 10
5112.443252955766
 20
-11339.72059573823
 30
0.0
 11
5112.443252955766
 21
-11340.81741987071
 31
0.0
  0
LINE
  5
6A0C6
330
18
100
AcDbEntity
  8
姿図
100
AcDbLine
 10
5110.6244867246
 20
-11333.07181048896
 30
0.0
 11
5112.443252955766
 21
-11334.84891303635
 31
0.0
  0
LINE
  5
6A0C7
330
18
100
AcDbEntity
  8
姿図
100
AcDbLine
 10
5110.6244867246
 20
-11328.85983481963
 30
0.0
 11
5111.730970260966
 21
-11329.8762188258
 31
0.0
  0
LINE
  5
6A0C8
330
18
100
AcDbEntity
  8
姿図
100
AcDbLine
 10
5110.6244867246
 20
-11360.98249263515
 30
0.0
 11
5111.726453328315
 21
-11361.7061467961
 31
0.0
  0
LINE
  5
6A0C9
330
18
100
AcDbEntity
  8
姿図
100
AcDbLine
 10
5110.6244867246
 20
-11359.20635831676
 30
0.0
 11
5110.6244867246
 21
-11360.98249263515
 31
0.0
  0
LINE
  5
6A0CA
330
18
100
AcDbEntity
  8
姿図
100
AcDbLine
 10
5110.6244867246
 20
-11342.81517589272
 30
0.0
 11
5110.6244867246
 21
-11341.14053496395
 31
0.0
  0
LINE
  5
6A0CB
330
18
100
AcDbEntity
  8
姿図
100
AcDbLine
 10
5110.6244867246
 20
-11333.07181048896
 30
0.0
 11
5110.6244867246
 21
-11331.39716956019
 31
0.0
  0
LINE
  5
6A0CC
330
18
100
AcDbEntity
  8
姿図
100
AcDbLine
 10
5110.6244867246
 20
-11352.55854129648
 30
0.0
 11
5110.6244867246
 21
-11350.88390036771
 31
0.0
  0
LINE
  5
6A0CD
330
18
100
AcDbEntity
  8
姿図
100
AcDbLine
 10
5110.6244867246
 20
-11347.6868585946
 30
0.0
 11
5110.6244867246
 21
-11346.01221766583
 31
0.0
  0
LINE
  5
6A0CE
330
18
100
AcDbEntity
  8
姿図
100
AcDbLine
 10
5113.975045871653
 20
-11360.38724503673
 30
0.0
 11
5110.6244867246
 21
-11360.98249263516
 31
0.0
  0
LINE
  5
6A0CF
330
18
100
AcDbEntity
  8
姿図
100
AcDbLine
 10
5113.975045871653
 20
-11351.96329369806
 30
0.0
 11
5110.6244867246
 21
-11352.55854129648
 31
0.0
  0
LINE
  5
6A0D0
330
18
100
AcDbEntity
  8
姿図
100
AcDbLine
 10
5113.975045871653
 20
-11350.28865276929
 30
0.0
 11
5110.6244867246
 21
-11350.88390036771
 31
0.0
  0
LINE
  5
6A0D1
330
18
100
AcDbEntity
  8
姿図
100
AcDbLine
 10
5113.975045871653
 20
-11347.09161099618
 30
0.0
 11
5110.6244867246
 21
-11347.6868585946
 31
0.0
  0
LINE
  5
6A0D2
330
18
100
AcDbEntity
  8
姿図
100
AcDbLine
 10
5113.975045871653
 20
-11345.41697006741
 30
0.0
 11
5110.6244867246
 21
-11346.01221766583
 31
0.0
  0
LINE
  5
6A0D3
330
18
100
AcDbEntity
  8
姿図
100
AcDbLine
 10
5113.975045871653
 20
-11342.2199282943
 30
0.0
 11
5110.6244867246
 21
-11342.81517589272
 31
0.0
  0
LINE
  5
6A0D4
330
18
100
AcDbEntity
  8
姿図
100
AcDbLine
 10
5113.975045871653
 20
-11340.54528736553
 30
0.0
 11
5110.6244867246
 21
-11341.14053496395
 31
0.0
  0
LINE
  5
6A0D5
330
18
100
AcDbEntity
  8
姿図
100
AcDbLine
 10
5113.975045871653
 20
-11332.47656289054
 30
0.0
 11
5110.6244867246
 21
-11333.07181048896
 31
0.0
  0
LINE
  5
6A0D6
330
18
100
AcDbEntity
  8
姿図
100
AcDbLine
 10
5113.975045871653
 20
-11330.80192196177
 30
0.0
 11
5110.6244867246
 21
-11331.39716956019
 31
0.0
  0
LINE
  5
6A0D7
330
18
100
AcDbEntity
  8
姿図
100
AcDbLine
 10
5113.975045871653
 20
-11328.26458722121
 30
0.0
 11
5110.6244867246
 21
-11328.85983481963
 31
0.0
  0
LINE
  5
6A0D8
330
18
100
AcDbEntity
  8
姿図
100
AcDbLine
 10
5113.975045871653
 20
-11329.47754488533
 30
0.0
 11
5111.730970260966
 21
-11329.8762188258
 31
0.0
  0
LINE
  5
6A0D9
330
18
100
AcDbEntity
  8
姿図
100
AcDbLine
 10
5113.975045871653
 20
-11334.57678053116
 30
0.0
 11
5112.443252955766
 21
-11334.84891303635
 31
0.0
  0
LINE
  5
6A0DA
330
18
100
AcDbEntity
  8
姿図
100
AcDbLine
 10
5113.975045871653
 20
-11344.32014593492
 30
0.0
 11
5112.443252955764
 21
-11344.59227844011
 31
0.0
  0
LINE
  5
6A0DB
330
18
100
AcDbEntity
  8
姿図
100
AcDbLine
 10
5113.975045871653
 20
-11354.06351133868
 30
0.0
 11
5112.443252955766
 21
-11354.33564384387
 31
0.0
  0
LINE
  5
6A0DC
330
18
100
AcDbEntity
  8
姿図
100
AcDbLine
 10
5113.975045871653
 20
-11349.1918286368
 30
0.0
 11
5112.443252955766
 21
-11349.46396114199
 31
0.0
  0
LINE
  5
6A0DD
330
18
100
AcDbEntity
  8
姿図
100
AcDbLine
 10
5113.975045871653
 20
-11360.38724503673
 30
0.0
 11
5110.6244867246
 21
-11360.98249263516
 31
0.0
  0
LINE
  5
6A0DE
330
18
100
AcDbEntity
  8
姿図
100
AcDbLine
 10
5113.975045871653
 20
-11361.30667039455
 30
0.0
 11
5111.726453328315
 21
-11361.7061467961
 31
0.0
  0
LINE
  5
6A0DF
330
18
100
AcDbEntity
  8
姿図
100
AcDbLine
 10
5110.6244867246
 20
-11328.85983481962
 30
0.0
 11
5110.6244867246
 21
-11326.82996702717
 31
0.0
  0
LINE
  5
6A0E0
330
18
100
AcDbEntity
  8
姿図
100
AcDbLine
 10
5113.975045871653
 20
-11326.23471942875
 30
0.0
 11
5110.6244867246
 21
-11326.82996702717
 31
0.0
  0
LINE
  5
6A0E1
330
18
100
AcDbEntity
  8
姿図
100
AcDbLine
 10
5112.558312917031
 20
-11339.70015462299
 30
0.0
 11
5112.443252955766
 21
-11339.72059573823
 31
0.0
  0
LINE
  5
6A0E2
330
18
100
AcDbEntity
  8
姿図
100
AcDbLine
 10
5112.415440415188
 20
-11339.5886118276
 30
0.0
 11
5112.443252955775
 21
-11339.61415962878
 31
0.0
  0
LINE
  5
6A0E3
330
18
100
AcDbEntity
  8
姿図
100
AcDbLine
 10
5112.443252955766
 20
-11334.84891303635
 30
0.0
 11
5112.443252955766
 21
-11335.55058992784
 31
0.0
  0
LINE
  5
6A0E4
330
18
100
AcDbEntity
  8
姿図
100
AcDbLine
 10
5113.975045871653
 20
-11335.67360466365
 30
0.0
 11
5112.855563949428
 21
-11335.87248756541
 31
0.0
  0
LINE
  5
6A0E5
330
18
100
AcDbEntity
  8
姿図
100
AcDbLine
 10
5108.975045871654
 20
-11352.32963725341
 30
0.0
 11
5108.975045871653
 21
-11336.90264203078
 31
0.0
  0
LINE
  5
6A0E6
330
18
100
AcDbEntity
  8
姿図
100
AcDbLine
 10
5113.975045871653
 20
-11355.16033547117
 30
0.0
 11
5112.855563949428
 21
-11355.35921837293
 31
0.0
  0
LINE
  5
6A0E7
330
18
100
AcDbEntity
  8
姿図
100
AcDbLine
 10
5112.443252955768
 20
-11354.22920773441
 30
0.0
 11
5112.443252955767
 21
-11355.03732073536
 31
0.0
  0
LINE
  5
6A0E8
330
18
100
AcDbEntity
  8
姿図
100
AcDbLine
 10
5112.220152599169
 20
-11358.9228783846
 30
0.0
 11
5110.6244867246
 21
-11359.20635831676
 31
0.0
  0
LINE
  5
6A0E9
330
18
100
AcDbEntity
  8
姿図
100
AcDbLine
 10
5113.975045871653
 20
-11320.34810283065
 30
0.0
 11
5110.6244867246
 21
-11320.94335042907
 31
0.0
  0
LINE
  5
6A0EA
330
18
100
AcDbEntity
  8
姿図
100
AcDbLine
 10
5113.975045871653
 20
-11321.2460785465
 30
0.0
 11
5111.730970260968
 21
-11321.64475248697
 31
0.0
  0
LINE
  5
6A0EB
330
18
100
AcDbEntity
  8
姿図
100
AcDbLine
 10
5110.6244867246
 20
-11320.94335042907
 30
0.0
 11
5111.730970260968
 21
-11321.64475248697
 31
0.0
  0
LINE
  5
6A0EC
330
18
100
AcDbEntity
  8
姿図
100
AcDbLine
 10
5111.827550868214
 20
-11321.62759434351
 30
0.0
 11
5111.827550868214
 21
-11326.61623522576
 31
0.0
  0
LINE
  5
6A0ED
330
18
100
AcDbEntity
  8
姿図
100
AcDbLine
 10
5101.27684375551
 20
-11492.67818102691
 30
0.0
 11
5117.036424584126
 21
-11489.87839381868
 31
0.0
  0
LINE
  5
6A0EE
330
18
100
AcDbEntity
  8
姿図
100
AcDbLine
 10
5117.036424584126
 20
-11487.1182762497
 30
0.0
 11
5117.036424584126
 21
-11489.87839381868
 31
0.0
  0
LINE
  5
6A0EF
330
18
100
AcDbEntity
  8
姿図
100
AcDbLine
 10
5083.144961402098
 20
-11373.60062963872
 30
0.0
 11
5083.144961402098
 21
-11380.82436953431
 31
0.0
  0
LINE
  5
6A0F0
330
18
100
AcDbEntity
  8
姿図
100
AcDbLine
 10
5081.144961402098
 20
-11371.19582446526
 30
0.0
 11
5081.144961402098
 21
-11379.14836538668
 31
0.0
  0
LINE
  5
6A0F1
330
18
100
AcDbEntity
  8
姿図
100
AcDbLine
 10
5081.144961402098
 20
-11379.14836538668
 30
0.0
 11
5078.325583438417
 21
-11380.55975050418
 31
0.0
  0
LINE
  5
6A0F2
330
18
100
AcDbEntity
  8
姿図
100
AcDbLine
 10
5108.975045871653
 20
-11365.13082608049
 30
0.0
 11
5091.975045871653
 21
-11368.15098144233
 31
0.0
  0
LINE
  5
6A0F3
330
18
100
AcDbEntity
  8
姿図
100
AcDbLine
 10
5113.975045871653
 20
-11369.03397920381
 30
0.0
 11
5083.144961402098
 21
-11373.60062963872
 31
0.0
  0
LINE
  5
6A0F4
330
18
100
AcDbEntity
  8
姿図
100
AcDbLine
 10
5108.975045871654
 20
-11367.16214262362
 30
0.0
 11
5081.144961402096
 21
-11371.19582446526
 31
0.0
  0
ARC
  5
6A0F5
330
18
100
AcDbEntity
  8
姿図
100
AcDbCircle
 10
5073.703628976226
 20
-11380.87304022435
 30
0.0
 40
0.5
100
AcDbArc
 50
145.6044933459705
 51
280.0738452397017
  0
LINE
  5
6A0F6
330
18
100
AcDbEntity
  8
姿図
100
AcDbLine
 10
5075.698982832517
 20
-11381.02638238085
 30
0.0
 11
5072.740392385543
 21
-11378.67379917075
 31
0.0
  0
LINE
  5
6A0F7
330
18
100
AcDbEntity
  8
姿図
100
AcDbLine
 10
5074.971404166443
 20
-11377.90553477122
 30
0.0
 11
5072.705690183564
 21
-11378.30805290262
 31
0.0
  0
LINE
  5
6A0F8
330
18
100
AcDbEntity
  8
姿図
100
AcDbLine
 10
5074.971404166442
 20
-11378.10866642553
 30
0.0
 11
5072.78513938475
 21
-11378.49706991394
 31
0.0
  0
LINE
  5
6A0F9
330
18
100
AcDbEntity
  8
姿図
100
AcDbLine
 10
5073.081551695082
 20
-11378.24127877561
 30
0.0
 11
5075.002167581952
 21
-11375.43581807265
 31
0.0
  0
LINE
  5
6A0FA
330
18
100
AcDbEntity
  8
姿図
100
AcDbLine
 10
5072.705690183564
 20
-11378.30805290262
 30
0.0
 11
5072.705690183565
 21
-11378.57098324877
 31
0.0
  0
ARC
  5
6A0FB
330
18
100
AcDbEntity
  8
姿図
100
AcDbCircle
 10
5072.802631114275
 20
-11378.59552822694
 30
0.0
 40
0.1
100
AcDbArc
 50
100.0738452395626
 51
231.5093228086633
  0
LINE
  5
6A0FC
330
18
100
AcDbEntity
  8
姿図
100
AcDbLine
 10
5068.965256987762
 20
-11384.25398705429
 30
0.0
 11
5072.769566838841
 21
-11378.69699782911
 31
0.0
  0
LINE
  5
6A0FD
330
18
100
AcDbEntity
  8
姿図
100
AcDbLine
 10
5076.448405088859
 20
-11452.65703765328
 30
0.0
 11
5076.448405088859
 21
-11390.61405170902
 31
0.0
  0
LINE
  5
6A0FE
330
18
100
AcDbEntity
  8
姿図
100
AcDbLine
 10
5076.966170381989
 20
-11453.0966460285
 30
0.0
 11
5076.96617038199
 21
-11391.05410991658
 31
0.0
  0
LINE
  5
6A0FF
330
18
100
AcDbEntity
  8
姿図
100
AcDbLine
 10
5073.291050074959
 20
-11380.59058907773
 30
0.0
 11
5073.946636282822
 21
-11379.63296847481
 31
0.0
  0
LINE
  5
6A100
330
18
100
AcDbEntity
  8
姿図
100
AcDbLine
 10
5075.002167581953
 20
-11375.43581807265
 30
0.0
 11
5076.169876904808
 21
-11376.38546113051
 31
0.0
  0
LINE
  5
6A101
330
18
100
AcDbEntity
  8
姿図
100
AcDbLine
 10
5076.169876904812
 20
-11376.38546113051
 30
0.0
 11
5076.636809822647
 21
-11379.01375625184
 31
0.0
  0
LINE
  5
6A102
330
18
100
AcDbEntity
  8
姿図
100
AcDbLine
 10
5075.130937992163
 20
-11377.90304843785
 30
0.0
 11
5076.169876904808
 21
-11376.38546113051
 31
0.0
  0
LINE
  5
6A103
330
18
100
AcDbEntity
  8
姿図
100
AcDbLine
 10
5075.698982832518
 20
-11381.02638238085
 30
0.0
 11
5073.791087623849
 21
-11381.36533178934
 31
0.0
  0
LINE
  5
6A104
330
18
100
AcDbEntity
  8
姿図
100
AcDbLine
 10
5075.370056457727
 20
-11378.20960327144
 30
0.0
 11
5075.370056457728
 21
-11378.00647161713
 31
0.0
  0
ARC
  5
6A105
330
18
100
AcDbEntity
  8
姿図
100
AcDbCircle
 10
5075.058862814066
 20
-11378.39782633621
 30
0.0
 40
0.5
100
AcDbArc
 50
51.50932280871154
 51
100.0738452397017
  0
ARC
  5
6A106
330
18
100
AcDbEntity
  8
姿図
100
AcDbCircle
 10
5075.058862814065
 20
-11378.60095799052
 30
0.0
 40
0.5
100
AcDbArc
 50
51.50932280871154
 51
100.0738452397017
  0
LINE
  5
6A107
330
18
100
AcDbEntity
  8
姿図
100
AcDbLine
 10
5083.144961402096
 20
-11380.82436953431
 30
0.0
 11
5068.965256987762
 21
-11384.25398705429
 31
0.0
  0
LINE
  5
6A108
330
18
100
AcDbEntity
  8
姿図
100
AcDbLine
 10
5068.965256987763
 20
-11384.25398705429
 30
0.0
 11
5180.066248460813
 21
-11478.68075496354
 31
0.0
  0
LINE
  5
6A109
330
18
100
AcDbEntity
  8
姿図
100
AcDbLine
 10
5078.325583438417
 20
-11380.55975050418
 30
0.0
 11
5075.698982832518
 21
-11381.02638238085
 31
0.0
  0
LINE
  5
6A10A
330
18
100
AcDbEntity
  8
姿図
100
AcDbLine
 10
5078.325583438417
 20
-11380.55975050418
 30
0.0
 11
5075.370056457727
 21
-11378.20960327144
 31
0.0
  0
LINE
  5
6A10B
330
18
100
AcDbEntity
  8
姿図
100
AcDbLine
 10
5078.482348418983
 20
-11380.48127370421
 30
0.0
 11
5075.370056457728
 21
-11378.00647161713
 31
0.0
  0
LINE
  5
6A10C
330
18
100
AcDbEntity
  8
姿図
100
AcDbLine
 10
5092.057130769951
 20
-11290.39565892939
 30
0.0
 11
4969.907506513348
 21
-11313.0962967321
 31
0.0
  0
LINE
  5
6A10D
330
18
100
AcDbEntity
  8
姿図
100
AcDbLine
 10
5091.975045871654
 20
-11289.93361539062
 30
0.0
 11
4969.389741220218
 21
-11312.7116545157
 31
0.0
  0
LINE
  5
6A10E
330
18
100
AcDbEntity
  8
姿図
100
AcDbLine
 10
5113.975045871656
 20
-11265.71201360867
 30
0.0
 11
4954.389741220218
 21
-11297.06333205071
 31
0.0
  0
LINE
  5
6A10F
330
18
100
AcDbEntity
  8
姿図
100
AcDbLine
 10
5113.975045871653
 20
-11265.71201360867
 30
0.0
 11
5129.473248641408
 21
-11278.88422005387
 31
0.0
  0
LINE
  5
6A110
330
18
100
AcDbEntity
  8
姿図
100
AcDbLine
 10
5113.975045871653
 20
-11318.3182350382
 30
0.0
 11
5110.6244867246
 21
-11318.91348263662
 31
0.0
  0
LINE
  5
6A15E
330
18
100
AcDbEntity
  8
姿図
100
AcDbLine
 10
5226.458171664878
 20
-11452.4364455872
 30
0.0
 11
5226.458171664878
 21
-11450.76180465842
 31
0.0
  0
LINE
  5
6A15F
330
18
100
AcDbEntity
  8
姿図
100
AcDbLine
 10
5226.458171664878
 20
-11452.4364455872
 30
0.0
 11
5224.183163649191
 21
-11452.4364455872
 31
0.0
  0
LINE
  5
6A160
330
18
100
AcDbEntity
  8
姿図
100
AcDbLine
 10
5224.128423278208
 20
-11414.95556109858
 30
0.0
 11
5224.128423278208
 21
-11420.01731763434
 31
0.0
  0
LINE
  5
6A161
330
18
100
AcDbEntity
  8
姿図
100
AcDbLine
 10
5226.458171664878
 20
-11437.82139748155
 30
0.0
 11
5226.458171664878
 21
-11436.14675655278
 31
0.0
  0
LINE
  5
6A162
330
18
100
AcDbEntity
  8
姿図
100
AcDbLine
 10
5226.458171664878
 20
-11442.69308018344
 30
0.0
 11
5226.458171664878
 21
-11441.01843925466
 31
0.0
  0
LINE
  5
6A163
330
18
100
AcDbEntity
  8
姿図
100
AcDbLine
 10
5226.458171664878
 20
-11447.56476288531
 30
0.0
 11
5226.458171664878
 21
-11445.89012195655
 31
0.0
  0
LINE
  5
6A164
330
18
100
AcDbEntity
  8
姿図
100
AcDbLine
 10
5226.458171664878
 20
-11447.56476288531
 30
0.0
 11
5224.639405433713
 21
-11449.3418654327
 31
0.0
  0
LINE
  5
6A165
330
18
100
AcDbEntity
  8
姿図
100
AcDbLine
 10
5226.458171664878
 20
-11442.69308018344
 30
0.0
 11
5224.639405433713
 21
-11444.47018273082
 31
0.0
  0
LINE
  5
6A166
330
18
100
AcDbEntity
  8
姿図
100
AcDbLine
 10
5226.458171664878
 20
-11437.82139748155
 30
0.0
 11
5224.639405433713
 21
-11439.59850002894
 31
0.0
  0
LINE
  5
6A167
330
18
100
AcDbEntity
  8
姿図
100
AcDbLine
 10
5226.458171664878
 20
-11423.86605640846
 30
0.0
 11
5226.458171664878
 21
-11421.83618861601
 31
0.0
  0
LINE
  5
6A168
330
18
100
AcDbEntity
  8
姿図
100
AcDbLine
 10
5226.458171664878
 20
-11428.07803207779
 30
0.0
 11
5226.458171664878
 21
-11426.40339114902
 31
0.0
  0
LINE
  5
6A169
330
18
100
AcDbEntity
  8
姿図
100
AcDbLine
 10
5226.458171664878
 20
-11432.94971477967
 30
0.0
 11
5226.458171664878
 21
-11431.2750738509
 31
0.0
  0
LINE
  5
6A16A
330
18
100
AcDbEntity
  8
姿図
100
AcDbLine
 10
5225.160243897698
 20
-11424.00715465543
 30
0.0
 11
5225.160243897698
 21
-11425.39007865333
 31
0.0
  0
LINE
  5
6A16B
330
18
100
AcDbEntity
  8
姿図
100
AcDbLine
 10
5226.458171664878
 20
-11432.94971477967
 30
0.0
 11
5224.639405433713
 21
-11434.72681732706
 31
0.0
  0
LINE
  5
6A16C
330
18
100
AcDbEntity
  8
姿図
100
AcDbLine
 10
5226.458171664878
 20
-11423.86605640846
 30
0.0
 11
5225.160243897698
 21
-11424.00715465543
 31
0.0
  0
LINE
  5
6A16D
330
18
100
AcDbEntity
  8
姿図
100
AcDbLine
 10
5226.458171664878
 20
-11428.07803207779
 30
0.0
 11
5224.639405433713
 21
-11429.85513462518
 31
0.0
  0
LINE
  5
6A16E
330
18
100
AcDbEntity
  8
姿図
100
AcDbLine
 10
5226.458171664878
 20
-11415.9495720179
 30
0.0
 11
5226.458171664878
 21
-11413.91970422545
 31
0.0
  0
LINE
  5
6A16F
330
18
100
AcDbEntity
  8
姿図
100
AcDbLine
 10
5226.458171664878
 20
-11415.9495720179
 30
0.0
 11
5225.401628117338
 21
-11415.9495720179
 31
0.0
  0
LINE
  5
6A170
330
18
100
AcDbEntity
  8
姿図
100
AcDbLine
 10
5226.458171664878
 20
-11464.63544839107
 30
0.0
 11
5226.458171664878
 21
-11461.87533082209
 31
0.0
  0
LINE
  5
6A171
330
18
100
AcDbEntity
  8
姿図
100
AcDbLine
 10
5226.458171664878
 20
-11455.98871422399
 30
0.0
 11
5225.280501689586
 21
-11455.98871422399
 31
0.0
  0
LINE
  5
6A172
330
18
100
AcDbEntity
  8
姿図
100
AcDbLine
 10
5224.128423278208
 20
-11455.08926860014
 30
0.0
 11
5224.128423278208
 21
-11460.05645984043
 31
0.0
  0
LINE
  5
6A173
330
18
100
AcDbEntity
  8
姿図
100
AcDbLine
 10
5226.458171664878
 20
-11455.98871422399
 30
0.0
 11
5226.458171664878
 21
-11454.21257990559
 31
0.0
  0
LINE
  5
6A174
330
18
100
AcDbEntity
  8
姿図
100
AcDbLine
 10
5224.128423278208
 20
-11360.22109806826
 30
0.0
 11
5224.128423278209
 21
-11411.93960839302
 31
0.0
  0
LINE
  5
6A175
330
18
100
AcDbEntity
  8
姿図
100
AcDbLine
 10
5213.221626892623
 20
-11350.95121201882
 30
0.0
 11
5210.389170741778
 21
-11351.2809196952
 31
0.0
  0
LINE
  5
6A176
330
18
100
AcDbEntity
  8
姿図
100
AcDbLine
 10
5213.221626892623
 20
-11402.66972234357
 30
0.0
 11
5213.221626892623
 21
-11350.95121201882
 31
0.0
  0
LINE
  5
6A177
330
18
100
AcDbEntity
  8
姿図
100
AcDbLine
 10
5195.240913588176
 20
-11468.76114175922
 30
0.0
 11
5195.240913588176
 21
-11475.9848816548
 31
0.0
  0
LINE
  5
6A178
330
18
100
AcDbEntity
  8
姿図
100
AcDbLine
 10
5213.221626892623
 20
-11350.95121201882
 30
0.0
 11
5224.128423278208
 21
-11360.22109806826
 31
0.0
  0
LINE
  5
6A179
330
18
100
AcDbEntity
  8
姿図
100
AcDbLine
 10
5195.240913588176
 20
-11470.18138776533
 30
0.0
 11
5226.458171664883
 21
-11464.63544839107
 31
0.0
  0
ENDSEC
  0
SECTION
  2
OBJECTS
  0
DICTIONARY
  5
C
330
0
100
AcDbDictionary
281
     1
  3
ACAD_GROUP
350
D
  3
ACAD_IMAGE_VARS
350
698AC
  3
ACAD_LAYOUT
350
40CB
  3
ACAD_MLINESTYLE
350
E
  3
ACAD_PLOTSETTINGS
350
40CC
  3
ACAD_PLOTSTYLENAME
350
40C9
  3
ACAD_SCALELIST
350
65568
  3
AcadDim
350
FCCB
  3
AcDbVariableDictionary
350
6377
  3
AEC_DISP_REPS
350
6A4F4
  3
AEC_DISPLAY_PROPS_DEFAULTS
350
6A4F6
  3
AEC_VARS
350
6A4F2
  3
APPDATA
350
698AB
  3
DWGPROPS
350
6A552
  0
DICTIONARY
  5
650E4
330
2
100
AcDbDictionary
280
     1
281
     1
  3
ACAD_LAYERSTATES
360
650E5
  0
DICTIONARY
  5
663B9
330
F
100
AcDbDictionary
280
     1
281
     1
  3
ADSK_XREC_LAYER_RECONCILED
360
663BA
  0
DICTIONARY
  5
663C1
330
4C
100
AcDbDictionary
280
     1
281
     1
  3
ADSK_XREC_LAYER_RECONCILED
360
663C2
  0
DICTIONARY
  5
663C3
330
4D
100
AcDbDictionary
280
     1
281
     1
  3
ADSK_XREC_LAYER_RECONCILED
360
663C4
  0
DICTIONARY
  5
663C7
330
40D4
100
AcDbDictionary
280
     1
281
     1
  3
ADSK_XREC_LAYER_RECONCILED
360
663C8
  0
DICTIONARY
  5
663CD
330
6552A
100
AcDbDictionary
280
     1
281
     1
  3
ADSK_XREC_LAYER_RECONCILED
360
663CE
  0
DICTIONARY
  5
D
102
{ACAD_REACTORS
330
C
102
}
330
C
100
AcDbDictionary
281
     1
  0
RASTERVARIABLES
  5
698AC
102
{ACAD_REACTORS
330
C
102
}
330
C
100
AcDbRasterVariables
 90
        0
 70
     1
 71
     1
 72
     0
  0
DICTIONARY
  5
40CB
102
{ACAD_REACTORS
330
C
102
}
330
C
100
AcDbDictionary
281
     1
  3
Model
350
40CD
  3
ﾚｲｱｳﾄ1
350
40CE
  0
DICTIONARY
  5
E
102
{ACAD_REACTORS
330
C
102
}
330
C
100
AcDbDictionary
281
     1
  3
STANDARD
350
1B
  0
DICTIONARY
  5
40CC
102
{ACAD_REACTORS
330
C
102
}
330
C
100
AcDbDictionary
281
     1
  0
ACDBDICTIONARYWDFLT
  5
40C9
102
{ACAD_REACTORS
330
C
102
}
330
C
100
AcDbDictionary
281
     1
  3
Normal
350
40CA
100
AcDbDictionaryWithDefault
340
40CA
  0
DICTIONARY
  5
65568
102
{ACAD_REACTORS
330
C
102
}
330
C
100
AcDbDictionary
281
     1
  3
A0
350
65569
  3
A1
350
6556A
  3
A2
350
6556B
  3
A3
350
6556C
  3
A4
350
6556D
  3
A5
350
6556E
  3
A6
350
6556F
  3
A7
350
65570
  3
A8
350
65571
  3
A9
350
65572
  3
B0
350
65573
  3
B1
350
65574
  3
B2
350
65575
  3
B3
350
65576
  3
B4
350
65577
  3
B5
350
65578
  3
B6
350
65579
  3
B7
350
6557A
  3
B8
350
6557B
  3
B9
350
6557C
  3
C0
350
6557D
  3
C1
350
6557E
  3
C2
350
6557F
  3
C3
350
65580
  3
C4
350
65581
  3
C5
350
65582
  3
C6
350
65583
  3
C7
350
65584
  3
C8
350
65585
  3
C9
350
65586
  3
D0
350
65587
  3
D1
350
65588
  3
D2
350
65589
  0
XRECORD
  5
FCCB
102
{ACAD_REACTORS
330
C
102
}
330
C
100
AcDbXrecord
280
     1
 90
   990106
  3

 60
     0
 61
     0
 62
     1
 63
     3
 64
     0
 65
     0
 66
     0
 67
     3
 68
     1
 69
     0
 70
     0
 71
     0
 72
     0
 40
2.0
170
     0
  0
DICTIONARY
  5
6377
102
{ACAD_REACTORS
330
C
102
}
330
C
100
AcDbDictionary
281
     1
  3
DIMASSOC
350
73F2
  3
INDEXCTL
350
663E2
  3
PROJECTNAME
350
61970
  3
SORTENTS
350
6378
  0
DICTIONARY
  5
6A4F4
102
{ACAD_REACTORS
330
C
102
}
330
C
100
AcDbDictionary
281
     1
  3
AecDbDispRep2dSection
350
6A4F5
  3
AecDbDispRepAnchor
350
6A52F
  3
AecDbDispRepAnchorEntToNode
350
6A530
  3
AecDbDispRepClipVolModel
350
6A4FC
  3
AecDbDispRepClipVolPlan
350
6A4FE
  3
AecDbDispRepClipVolResSubDiv
350
6A501
  3
AecDbDispRepClipVolResult
350
6A500
  3
AecDbDispRepDisplayTheme
350
6A503
  3
AecDbDispRepEditInPlaceProfile
350
6A534
  3
AecDbDispRepEntRef
350
6A505
  3
AecDbDispRepLayoutCurve
350
6A507
  3
AecDbDispRepLayoutGrid2d
350
6A509
  3
AecDbDispRepLayoutGrid3d
350
6A50B
  3
AecDbDispRepMaskBlockRef
350
6A50D
  3
AecDbDispRepMaskBlockRefRcp
350
6A50F
  3
AecDbDispRepMassElemModel
350
6A511
  3
AecDbDispRepMassElemPlan100
350
6A517
  3
AecDbDispRepMassElemPlan50
350
6A515
  3
AecDbDispRepMassElemRcp
350
6A519
  3
AecDbDispRepMassElemSchem
350
6A513
  3
AecDbDispRepMassGroupModel
350
6A51B
  3
AecDbDispRepMassGroupPlan
350
6A51D
  3
AecDbDispRepMassGroupPlan100
350
6A521
  3
AecDbDispRepMassGroupPlan50
350
6A51F
  3
AecDbDispRepMassGroupRcp
350
6A523
  3
AecDbDispRepMaterial
350
6A532
  3
AecDbDispRepMvBlockRef
350
6A525
  3
AecDbDispRepMvBlockRefModel
350
6A526
  3
AecDbDispRepMvBlockRefPlan100
350
6A527
  3
AecDbDispRepMvBlockRefPlan50
350
6A528
  3
AecDbDispRepPolygonModel
350
6A529
  3
AecDbDispRepPolygonTrueColour
350
6A52B
  3
AecDbDispRepSlice
350
6A52D
  0
DICTIONARY
  5
6A4F6
102
{ACAD_REACTORS
330
C
102
}
330
C
100
AcDbDictionary
281
     1
  3
*A1
350
6A4F7
  3
*A10
350
6A50E
  3
*A11
350
6A510
  3
*A12
350
6A512
  3
*A13
350
6A514
  3
*A14
350
6A516
  3
*A15
350
6A518
  3
*A16
350
6A51A
  3
*A17
350
6A51C
  3
*A18
350
6A51E
  3
*A19
350
6A520
  3
*A2
350
6A4FD
  3
*A20
350
6A522
  3
*A21
350
6A524
  3
*A22
350
6A52A
  3
*A23
350
6A52C
  3
*A24
350
6A52E
  3
*A25
350
6A531
  3
*A26
350
6A533
  3
*A27
350
6A535
  3
*A3
350
6A4FF
  3
*A4
350
6A502
  3
*A5
350
6A504
  3
*A6
350
6A506
  3
*A7
350
6A508
  3
*A8
350
6A50A
  3
*A9
350
6A50C
  0
DICTIONARY
  5
6A4F2
102
{ACAD_REACTORS
330
C
102
}
330
C
100
AcDbDictionary
281
     1
  3
AEC_VARS_DWG_SETUP
350
6A4F3
  0
DICTIONARY
  5
698AB
102
{ACAD_REACTORS
330
C
102
}
330
C
100
AcDbDictionary
281
     1
  0
XRECORD
  5
6A552
102
{ACAD_REACTORS
330
C
102
}
330
C
100
AcDbXrecord
280
     1
  1
DWGPROPS COOKIE
  2

  3

  4

  6

  7

  8
SPAX
  9

300
=
301
=
302
=
303
=
304
=
305
=
306
=
307
=
308
=
309
=
 40
0.0
 41
2449505.547222222
 42
2456825.515808576
  1

 90
        0
  0
DICTIONARY
  5
650E5
102
{ACAD_REACTORS
330
650E4
102
}
330
650E4
100
AcDbDictionary
281
     1
  0
XRECORD
  5
663BA
102
{ACAD_REACTORS
330
663B9
102
}
330
663B9
100
AcDbXrecord
280
     1
290
     1
  0
XRECORD
  5
663C2
102
{ACAD_REACTORS
330
663C1
102
}
330
663C1
100
AcDbXrecord
280
     1
290
     1
  0
XRECORD
  5
663C4
102
{ACAD_REACTORS
330
663C3
102
}
330
663C3
100
AcDbXrecord
280
     1
290
     1
  0
XRECORD
  5
663C8
102
{ACAD_REACTORS
330
663C7
102
}
330
663C7
100
AcDbXrecord
280
     1
290
     1
  0
XRECORD
  5
663CE
102
{ACAD_REACTORS
330
663CD
102
}
330
663CD
100
AcDbXrecord
280
     1
290
     1
  0
LAYOUT
  5
40CD
102
{ACAD_REACTORS
330
40CB
102
}
330
40CB
100
AcDbPlotSettings
  1

  2
JUST PDF 2.pc3
  4
A4
  6
CUT1
 40
3.174999952316284
 41
3.174999952316284
 42
3.175003051757812
 43
3.17498779296875
 44
209.8886566162109
 45
297.0530090332031
 46
14.27
 47
9.86
 48
6755.466620156127
 49
-10849.72352129548
140
8505.41880510519
141
-8139.796769908819
142
1.0
143
10.0
 70
 11940
 72
     1
 73
     0
 74
     4
  7
spax form.ctb
 75
     0
147
0.1
148
-6755.466620156127
149
10849.72352129548
100
AcDbLayout
  1
Model
 70
     1
 71
     0
 10
0.0
 20
0.0
 11
12.0
 21
9.0
 12
0.0
 22
0.0
 32
0.0
 14
4928.15392543518
 24
-11597.7101517634
 34
0.0
 15
5308.115925435181
 25
-11265.71201360867
 35
0.0
146
0.0
 13
0.0
 23
0.0
 33
0.0
 16
1.0
 26
0.0
 36
0.0
 17
0.0
 27
1.0
 37
0.0
 76
     0
330
18
331
68DD6
1001
ACAD_PSEXT
1000
DWG To PDF.pc3
1000
PDF
1000
ファイル
1000

1070
     0
  0
LAYOUT
  5
40CE
102
{ACAD_REACTORS
330
40CB
102
}
330
40CB
100
AcDbPlotSettings
  1

  2
なし
  4

  6

 40
0.0
 41
0.0
 42
0.0
 43
0.0
 44
0.0
 45
0.0
 46
0.0
 47
0.0
 48
0.0
 49
0.0
140
0.0
141
0.0
142
1.0
143
1.0
 70
   688
 72
     0
 73
     0
 74
     5
  7
spax form.ctb
 75
    16
147
1.0
148
0.0
149
0.0
100
AcDbLayout
  1
ﾚｲｱｳﾄ1
 70
     0
 71
     1
 10
0.0
 20
0.0
 11
12.0
 21
9.0
 12
0.0
 22
0.0
 32
0.0
 14
1.000000000000000E+20
 24
1.000000000000000E+20
 34
1.000000000000000E+20
 15
-1.000000000000000E+20
 25
-1.000000000000000E+20
 35
-1.000000000000000E+20
146
0.0
 13
0.0
 23
0.0
 33
0.0
 16
1.0
 26
0.0
 36
0.0
 17
0.0
 27
1.0
 37
0.0
 76
     0
330
15
  0
MLINESTYLE
  5
1B
102
{ACAD_REACTORS
330
E
102
}
330
E
100
AcDbMlineStyle
  2
STANDARD
 70
     0
  3

 62
     0
 51
90.0
 52
90.0
 71
     2
 49
0.5
 62
   256
  6
BYLAYER
 49
-0.5
 62
   256
  6
BYLAYER
  0
ACDBPLACEHOLDER
  5
40CA
102
{ACAD_REACTORS
330
40C9
102
}
330
40C9
  0
SCALE
  5
65569
102
{ACAD_REACTORS
330
65568
102
}
330
65568
100
AcDbScale
 70
     0
300
1:1
140
1.0
141
1.0
290
     1
1001
ACAD
1000
AcRTDxfName
1000
SCALE
1000
AcRTDxfName
1000
SCALE
1000
AcRTDxfName
1000
SCALE
  0
SCALE
  5
6556A
102
{ACAD_REACTORS
330
65568
102
}
330
65568
100
AcDbScale
 70
     0
300
1:2
140
1.0
141
2.0
290
     0
1001
ACAD
1000
AcRTDxfName
1000
SCALE
1000
AcRTDxfName
1000
SCALE
1000
AcRTDxfName
1000
SCALE
  0
SCALE
  5
6556B
102
{ACAD_REACTORS
330
65568
102
}
330
65568
100
AcDbScale
 70
     0
300
1:4
140
1.0
141
4.0
290
     0
1001
ACAD
1000
AcRTDxfName
1000
SCALE
1000
AcRTDxfName
1000
SCALE
1000
AcRTDxfName
1000
SCALE
  0
SCALE
  5
6556C
102
{ACAD_REACTORS
330
65568
102
}
330
65568
100
AcDbScale
 70
     0
300
1:5
140
1.0
141
5.0
290
     0
1001
ACAD
1000
AcRTDxfName
1000
SCALE
1000
AcRTDxfName
1000
SCALE
1000
AcRTDxfName
1000
SCALE
  0
SCALE
  5
6556D
102
{ACAD_REACTORS
330
65568
102
}
330
65568
100
AcDbScale
 70
     0
300
1:8
140
1.0
141
8.0
290
     0
1001
ACAD
1000
AcRTDxfName
1000
SCALE
1000
AcRTDxfName
1000
SCALE
1000
AcRTDxfName
1000
SCALE
  0
SCALE
  5
6556E
102
{ACAD_REACTORS
330
65568
102
}
330
65568
100
AcDbScale
 70
     0
300
1:10
140
1.0
141
10.0
290
     0
1001
ACAD
1000
AcRTDxfName
1000
SCALE
1000
AcRTDxfName
1000
SCALE
1000
AcRTDxfName
1000
SCALE
  0
SCALE
  5
6556F
102
{ACAD_REACTORS
330
65568
102
}
330
65568
100
AcDbScale
 70
     0
300
1:16
140
1.0
141
16.0
290
     0
1001
ACAD
1000
AcRTDxfName
1000
SCALE
1000
AcRTDxfName
1000
SCALE
1000
AcRTDxfName
1000
SCALE
  0
SCALE
  5
65570
102
{ACAD_REACTORS
330
65568
102
}
330
65568
100
AcDbScale
 70
     0
300
1:20
140
1.0
141
20.0
290
     0
1001
ACAD
1000
AcRTDxfName
1000
SCALE
1000
AcRTDxfName
1000
SCALE
1000
AcRTDxfName
1000
SCALE
  0
SCALE
  5
65571
102
{ACAD_REACTORS
330
65568
102
}
330
65568
100
AcDbScale
 70
     0
300
1:30
140
1.0
141
30.0
290
     0
1001
ACAD
1000
AcRTDxfName
1000
SCALE
1000
AcRTDxfName
1000
SCALE
1000
AcRTDxfName
1000
SCALE
  0
SCALE
  5
65572
102
{ACAD_REACTORS
330
65568
102
}
330
65568
100
AcDbScale
 70
     0
300
1:40
140
1.0
141
40.0
290
     0
1001
ACAD
1000
AcRTDxfName
1000
SCALE
1000
AcRTDxfName
1000
SCALE
1000
AcRTDxfName
1000
SCALE
  0
SCALE
  5
65573
102
{ACAD_REACTORS
330
65568
102
}
330
65568
100
AcDbScale
 70
     0
300
1:50
140
1.0
141
50.0
290
     0
1001
ACAD
1000
AcRTDxfName
1000
SCALE
1000
AcRTDxfName
1000
SCALE
1000
AcRTDxfName
1000
SCALE
  0
SCALE
  5
65574
102
{ACAD_REACTORS
330
65568
102
}
330
65568
100
AcDbScale
 70
     0
300
1:100
140
1.0
141
100.0
290
     0
1001
ACAD
1000
AcRTDxfName
1000
SCALE
1000
AcRTDxfName
1000
SCALE
1000
AcRTDxfName
1000
SCALE
  0
SCALE
  5
65575
102
{ACAD_REACTORS
330
65568
102
}
330
65568
100
AcDbScale
 70
     0
300
2:1
140
2.0
141
1.0
290
     0
1001
ACAD
1000
AcRTDxfName
1000
SCALE
1000
AcRTDxfName
1000
SCALE
1000
AcRTDxfName
1000
SCALE
  0
SCALE
  5
65576
102
{ACAD_REACTORS
330
65568
102
}
330
65568
100
AcDbScale
 70
     0
300
4:1
140
4.0
141
1.0
290
     0
1001
ACAD
1000
AcRTDxfName
1000
SCALE
1000
AcRTDxfName
1000
SCALE
1000
AcRTDxfName
1000
SCALE
  0
SCALE
  5
65577
102
{ACAD_REACTORS
330
65568
102
}
330
65568
100
AcDbScale
 70
     0
300
8:1
140
8.0
141
1.0
290
     0
1001
ACAD
1000
AcRTDxfName
1000
SCALE
1000
AcRTDxfName
1000
SCALE
1000
AcRTDxfName
1000
SCALE
  0
SCALE
  5
65578
102
{ACAD_REACTORS
330
65568
102
}
330
65568
100
AcDbScale
 70
     0
300
10:1
140
10.0
141
1.0
290
     0
1001
ACAD
1000
AcRTDxfName
1000
SCALE
1000
AcRTDxfName
1000
SCALE
1000
AcRTDxfName
1000
SCALE
  0
SCALE
  5
65579
102
{ACAD_REACTORS
330
65568
102
}
330
65568
100
AcDbScale
 70
     0
300
100:1
140
100.0
141
1.0
290
     0
1001
ACAD
1000
AcRTDxfName
1000
SCALE
1000
AcRTDxfName
1000
SCALE
1000
AcRTDxfName
1000
SCALE
  0
SCALE
  5
6557A
102
{ACAD_REACTORS
330
65568
102
}
330
65568
100
AcDbScale
 70
     0
300
1/128" = 1'-0"
140
0.0078125
141
12.0
290
     0
1001
ACAD
1000
AcRTDxfName
1000
SCALE
1000
AcRTDxfName
1000
SCALE
1000
AcRTDxfName
1000
SCALE
  0
SCALE
  5
6557B
102
{ACAD_REACTORS
330
65568
102
}
330
65568
100
AcDbScale
 70
     0
300
1/64" = 1'-0"
140
0.015625
141
12.0
290
     0
1001
ACAD
1000
AcRTDxfName
1000
SCALE
1000
AcRTDxfName
1000
SCALE
1000
AcRTDxfName
1000
SCALE
  0
SCALE
  5
6557C
102
{ACAD_REACTORS
330
65568
102
}
330
65568
100
AcDbScale
 70
     0
300
1/32" = 1'-0"
140
0.03125
141
12.0
290
     0
1001
ACAD
1000
AcRTDxfName
1000
SCALE
1000
AcRTDxfName
1000
SCALE
1000
AcRTDxfName
1000
SCALE
  0
SCALE
  5
6557D
102
{ACAD_REACTORS
330
65568
102
}
330
65568
100
AcDbScale
 70
     0
300
1/16" = 1'-0"
140
0.0625
141
12.0
290
     0
1001
ACAD
1000
AcRTDxfName
1000
SCALE
1000
AcRTDxfName
1000
SCALE
1000
AcRTDxfName
1000
SCALE
  0
SCALE
  5
6557E
102
{ACAD_REACTORS
330
65568
102
}
330
65568
100
AcDbScale
 70
     0
300
3/32" = 1'-0"
140
0.09375
141
12.0
290
     0
1001
ACAD
1000
AcRTDxfName
1000
SCALE
1000
AcRTDxfName
1000
SCALE
1000
AcRTDxfName
1000
SCALE
  0
SCALE
  5
6557F
102
{ACAD_REACTORS
330
65568
102
}
330
65568
100
AcDbScale
 70
     0
300
1/8" = 1'-0"
140
0.125
141
12.0
290
     0
1001
ACAD
1000
AcRTDxfName
1000
SCALE
1000
AcRTDxfName
1000
SCALE
1000
AcRTDxfName
1000
SCALE
  0
SCALE
  5
65580
102
{ACAD_REACTORS
330
65568
102
}
330
65568
100
AcDbScale
 70
     0
300
3/16" = 1'-0"
140
0.1875
141
12.0
290
     0
1001
ACAD
1000
AcRTDxfName
1000
SCALE
1000
AcRTDxfName
1000
SCALE
1000
AcRTDxfName
1000
SCALE
  0
SCALE
  5
65581
102
{ACAD_REACTORS
330
65568
102
}
330
65568
100
AcDbScale
 70
     0
300
1/4" = 1'-0"
140
0.25
141
12.0
290
     0
1001
ACAD
1000
AcRTDxfName
1000
SCALE
1000
AcRTDxfName
1000
SCALE
1000
AcRTDxfName
1000
SCALE
  0
SCALE
  5
65582
102
{ACAD_REACTORS
330
65568
102
}
330
65568
100
AcDbScale
 70
     0
300
3/8" = 1'-0"
140
0.375
141
12.0
290
     0
1001
ACAD
1000
AcRTDxfName
1000
SCALE
1000
AcRTDxfName
1000
SCALE
1000
AcRTDxfName
1000
SCALE
  0
SCALE
  5
65583
102
{ACAD_REACTORS
330
65568
102
}
330
65568
100
AcDbScale
 70
     0
300
1/2" = 1'-0"
140
0.5
141
12.0
290
     0
1001
ACAD
1000
AcRTDxfName
1000
SCALE
1000
AcRTDxfName
1000
SCALE
1000
AcRTDxfName
1000
SCALE
  0
SCALE
  5
65584
102
{ACAD_REACTORS
330
65568
102
}
330
65568
100
AcDbScale
 70
     0
300
3/4" = 1'-0"
140
0.75
141
12.0
290
     0
1001
ACAD
1000
AcRTDxfName
1000
SCALE
1000
AcRTDxfName
1000
SCALE
1000
AcRTDxfName
1000
SCALE
  0
SCALE
  5
65585
102
{ACAD_REACTORS
330
65568
102
}
330
65568
100
AcDbScale
 70
     0
300
1" = 1'-0"
140
1.0
141
12.0
290
     0
1001
ACAD
1000
AcRTDxfName
1000
SCALE
1000
AcRTDxfName
1000
SCALE
1000
AcRTDxfName
1000
SCALE
  0
SCALE
  5
65586
102
{ACAD_REACTORS
330
65568
102
}
330
65568
100
AcDbScale
 70
     0
300
1-1/2" = 1'-0"
140
1.5
141
12.0
290
     0
1001
ACAD
1000
AcRTDxfName
1000
SCALE
1000
AcRTDxfName
1000
SCALE
1000
AcRTDxfName
1000
SCALE
  0
SCALE
  5
65587
102
{ACAD_REACTORS
330
65568
102
}
330
65568
100
AcDbScale
 70
     0
300
3" = 1'-0"
140
3.0
141
12.0
290
     0
1001
ACAD
1000
AcRTDxfName
1000
SCALE
1000
AcRTDxfName
1000
SCALE
1000
AcRTDxfName
1000
SCALE
  0
SCALE
  5
65588
102
{ACAD_REACTORS
330
65568
102
}
330
65568
100
AcDbScale
 70
     0
300
6" = 1'-0"
140
6.0
141
12.0
290
     0
1001
ACAD
1000
AcRTDxfName
1000
SCALE
1000
AcRTDxfName
1000
SCALE
1000
AcRTDxfName
1000
SCALE
  0
SCALE
  5
65589
102
{ACAD_REACTORS
330
65568
102
}
330
65568
100
AcDbScale
 70
     0
300
1'-0" = 1'-0"
140
12.0
141
12.0
290
     0
1001
ACAD
1000
AcRTDxfName
1000
SCALE
1000
AcRTDxfName
1000
SCALE
1000
AcRTDxfName
1000
SCALE
  0
DICTIONARYVAR
  5
73F2
102
{ACAD_REACTORS
330
6377
102
}
330
6377
100
DictionaryVariables
280
     0
  1
1
  0
DICTIONARYVAR
  5
663E2
102
{ACAD_REACTORS
330
6377
102
}
330
6377
100
DictionaryVariables
280
     0
  1
0
  0
DICTIONARYVAR
  5
61970
102
{ACAD_REACTORS
330
6377
102
}
330
6377
100
DictionaryVariables
280
     0
  1

  0
DICTIONARYVAR
  5
6378
102
{ACAD_REACTORS
330
6377
102
}
330
6377
100
DictionaryVariables
280
     0
  1
96
  0
ENDSEC
  0
EOF
