  0
SECTION
  2
HEADER
  9
$ACADVER
  1
AC1015
  9
$ACADMAINTVER
 70
     6
  9
$DWGCODEPAGE
  3
ANSI_932
  9
$INSBASE
 10
0.0
 20
0.0
 30
0.0
  9
$EXTMIN
 10
1826.132858419566
 20
839.085842617548
 30
0.0
  9
$EXTMAX
 10
1942.074163136869
 20
947.2685657244742
 30
0.0
  9
$LIMMIN
 10
0.0
 20
0.0
  9
$LIMMAX
 10
840.0
 20
594.0
  9
$ORTHOMODE
 70
     1
  9
$REGENMODE
 70
     1
  9
$FILLMODE
 70
     1
  9
$QTEXTMODE
 70
     0
  9
$MIRRTEXT
 70
     1
  9
$LTSCALE
 40
7.0
  9
$ATTMODE
 70
     0
  9
$TEXTSIZE
 40
6.0
  9
$TRACEWID
 40
1.0
  9
$TEXTSTYLE
  7
STANDARD
  9
$CLAYER
  8
寸法線
  9
$CELTYPE
  6
BYLAYER
  9
$CECOLOR
 62
   256
  9
$CELTSCALE
 40
1.0
  9
$DISPSILH
 70
     0
  9
$DIMSCALE
 40
3.0
  9
$DIMASZ
 40
2.5
  9
$DIMEXO
 40
1.5
  9
$DIMDLI
 40
7.0
  9
$DIMRND
 40
0.0
  9
$DIMDLE
 40
0.0
  9
$DIMEXE
 40
1.0
  9
$DIMTP
 40
0.0
  9
$DIMTM
 40
0.0
  9
$DIMTXT
 40
3.0
  9
$DIMCEN
 40
0.0
  9
$DIMTSZ
 40
0.0
  9
$DIMTOL
 70
     0
  9
$DIMLIM
 70
     0
  9
$DIMTIH
 70
     0
  9
$DIMTOH
 70
     0
  9
$DIMSE1
 70
     0
  9
$DIMSE2
 70
     0
  9
$DIMTAD
 70
     3
  9
$DIMZIN
 70
     8
  9
$DIMBLK
  1
Open30
  9
$DIMASO
 70
     1
  9
$DIMSHO
 70
     0
  9
$DIMPOST
  1

  9
$DIMAPOST
  1

  9
$DIMALT
 70
     0
  9
$DIMALTD
 70
     2
  9
$DIMALTF
 40
25.4
  9
$DIMLFAC
 40
1.0
  9
$DIMTOFL
 70
     1
  9
$DIMTVP
 40
0.0
  9
$DIMTIX
 70
     0
  9
$DIMSOXD
 70
     0
  9
$DIMSAH
 70
     0
  9
$DIMBLK1
  1

  9
$DIMBLK2
  1

  9
$DIMSTYLE
  2
STANDARD
  9
$DIMCLRD
 70
     8
  9
$DIMCLRE
 70
     8
  9
$DIMCLRT
 70
   256
  9
$DIMTFAC
 40
0.6
  9
$DIMGAP
 40
1.0
  9
$DIMJUST
 70
     0
  9
$DIMSD1
 70
     0
  9
$DIMSD2
 70
     0
  9
$DIMTOLJ
 70
     1
  9
$DIMTZIN
 70
     0
  9
$DIMALTZ
 70
     0
  9
$DIMALTTZ
 70
     0
  9
$DIMUPT
 70
     0
  9
$DIMDEC
 70
     2
  9
$DIMTDEC
 70
     2
  9
$DIMALTU
 70
     2
  9
$DIMALTTD
 70
     2
  9
$DIMTXSTY
  7
STANDARD
  9
$DIMAUNIT
 70
     0
  9
$DIMADEC
 70
     2
  9
$DIMALTRND
 40
0.0
  9
$DIMAZIN
 70
     2
  9
$DIMDSEP
 70
    46
  9
$DIMATFIT
 70
     0
  9
$DIMFRAC
 70
     0
  9
$DIMLDRBLK
  1
Open30
  9
$DIMLUNIT
 70
     2
  9
$DIMLWD
 70
    -2
  9
$DIMLWE
 70
    -1
  9
$DIMTMOVE
 70
     0
  9
$LUNITS
 70
     2
  9
$LUPREC
 70
     2
  9
$SKETCHINC
 40
0.1
  9
$FILLETRAD
 40
0.4
  9
$AUNITS
 70
     0
  9
$AUPREC
 70
     2
  9
$MENU
  1
ACAD
  9
$ELEVATION
 40
0.0
  9
$PELEVATION
 40
0.0
  9
$THICKNESS
 40
0.0
  9
$LIMCHECK
 70
     0
  9
$CHAMFERA
 40
0.0
  9
$CHAMFERB
 40
0.0
  9
$CHAMFERC
 40
0.0
  9
$CHAMFERD
 40
0.0
  9
$SKPOLY
 70
     0
  9
$TDCREATE
 40
2449505.922222222
  9
$TDUCREATE
 40
2449505.547222222
  9
$TDUPDATE
 40
2456822.474048403
  9
$TDUUPDATE
 40
2456822.099048403
  9
$TDINDWG
 40
9.2329713889
  9
$TDUSRTIMER
 40
2456822.098910498
  9
$USRTIMER
 70
     1
  9
$ANGBASE
 50
0.0
  9
$ANGDIR
 70
     0
  9
$PDMODE
 70
     3
  9
$PDSIZE
 40
0.0
  9
$PLINEWID
 40
0.0
  9
$SPLFRAME
 70
     0
  9
$SPLINETYPE
 70
     6
  9
$SPLINESEGS
 70
     8
  9
$HANDSEED
  5
C0BC8
  9
$SURFTAB1
 70
     6
  9
$SURFTAB2
 70
     6
  9
$SURFTYPE
 70
     6
  9
$SURFU
 70
     6
  9
$SURFV
 70
     6
  9
$UCSBASE
  2

  9
$UCSNAME
  2

  9
$UCSORG
 10
0.0
 20
0.0
 30
0.0
  9
$UCSXDIR
 10
1.0
 20
0.0
 30
0.0
  9
$UCSYDIR
 10
0.0
 20
1.0
 30
0.0
  9
$UCSORTHOREF
  2

  9
$UCSORTHOVIEW
 70
     0
  9
$UCSORGTOP
 10
0.0
 20
0.0
 30
0.0
  9
$UCSORGBOTTOM
 10
0.0
 20
0.0
 30
0.0
  9
$UCSORGLEFT
 10
0.0
 20
0.0
 30
0.0
  9
$UCSORGRIGHT
 10
0.0
 20
0.0
 30
0.0
  9
$UCSORGFRONT
 10
0.0
 20
0.0
 30
0.0
  9
$UCSORGBACK
 10
0.0
 20
0.0
 30
0.0
  9
$PUCSBASE
  2

  9
$PUCSNAME
  2

  9
$PUCSORG
 10
0.0
 20
0.0
 30
0.0
  9
$PUCSXDIR
 10
1.0
 20
0.0
 30
0.0
  9
$PUCSYDIR
 10
0.0
 20
1.0
 30
0.0
  9
$PUCSORTHOREF
  2

  9
$PUCSORTHOVIEW
 70
     0
  9
$PUCSORGTOP
 10
0.0
 20
0.0
 30
0.0
  9
$PUCSORGBOTTOM
 10
0.0
 20
0.0
 30
0.0
  9
$PUCSORGLEFT
 10
0.0
 20
0.0
 30
0.0
  9
$PUCSORGRIGHT
 10
0.0
 20
0.0
 30
0.0
  9
$PUCSORGFRONT
 10
0.0
 20
0.0
 30
0.0
  9
$PUCSORGBACK
 10
0.0
 20
0.0
 30
0.0
  9
$USERI1
 70
     0
  9
$USERI2
 70
     0
  9
$USERI3
 70
     0
  9
$USERI4
 70
     0
  9
$USERI5
 70
     0
  9
$USERR1
 40
0.0
  9
$USERR2
 40
0.0
  9
$USERR3
 40
0.0
  9
$USERR4
 40
0.0
  9
$USERR5
 40
0.0
  9
$WORLDVIEW
 70
     0
  9
$SHADEDGE
 70
     3
  9
$SHADEDIF
 70
    70
  9
$TILEMODE
 70
     1
  9
$MAXACTVP
 70
    16
  9
$PINSBASE
 10
0.0
 20
0.0
 30
0.0
  9
$PLIMCHECK
 70
     0
  9
$PEXTMIN
 10
0.0
 20
0.0
 30
0.0
  9
$PEXTMAX
 10
0.0
 20
0.0
 30
0.0
  9
$PLIMMIN
 10
0.0
 20
0.0
  9
$PLIMMAX
 10
0.0
 20
0.0
  9
$UNITMODE
 70
     0
  9
$VISRETAIN
 70
     0
  9
$PLINEGEN
 70
     0
  9
$PSLTSCALE
 70
     0
  9
$TREEDEPTH
 70
  3020
  9
$CMLSTYLE
  2
STANDARD
  9
$CMLJUST
 70
     0
  9
$CMLSCALE
 40
1.0
  9
$PROXYGRAPHICS
 70
     1
  9
$MEASUREMENT
 70
     0
  9
$CELWEIGHT
370
    -1
  9
$ENDCAPS
280
     0
  9
$JOINSTYLE
280
     0
  9
$LWDISPLAY
290
     0
  9
$INSUNITS
 70
     0
  9
$HYPERLINKBASE
  1

  9
$STYLESHEET
  1
spax form.ctb
  9
$XEDIT
290
     1
  9
$CEPSNTYPE
380
     0
  9
$PSTYLEMODE
290
     1
  9
$FINGERPRINTGUID
  2
{C1CFCF3E-DF91-11D3-B30C-0060B0FA8DFC}
  9
$VERSIONGUID
  2
{4422B10E-4E9F-4289-B225-FEFE98E2BBF3}
  9
$EXTNAMES
290
     1
  9
$PSVPSCALE
 40
0.0
  9
$OLESTARTUP
290
     0
  0
ENDSEC
  0
SECTION
  2
CLASSES
  0
CLASS
  1
LWPOLYLINE
  2
AcDbPolyline
  3
ObjectDBX Classes
 90
        0
280
     0
281
     1
  0
CLASS
  1
ACDBDICTIONARYWDFLT
  2
AcDbDictionaryWithDefault
  3
ObjectDBX Classes
 90
        0
280
     0
281
     0
  0
CLASS
  1
ACDBPLACEHOLDER
  2
AcDbPlaceHolder
  3
ObjectDBX Classes
 90
        0
280
     0
281
     0
  0
CLASS
  1
LAYOUT
  2
AcDbLayout
  3
ObjectDBX Classes
 90
        0
280
     0
281
     0
  0
CLASS
  1
DICTIONARYVAR
  2
AcDbDictionaryVar
  3
ObjectDBX Classes
 90
        0
280
     0
281
     0
  0
CLASS
  1
MATERIAL
  2
AcDbMaterial
  3
ObjectDBX Classes
 90
     1153
280
     0
281
     0
  0
CLASS
  1
VISUALSTYLE
  2
AcDbVisualStyle
  3
ObjectDBX Classes
 90
     4095
280
     0
281
     0
  0
CLASS
  1
TABLESTYLE
  2
AcDbTableStyle
  3
ObjectDBX Classes
 90
     4095
280
     0
281
     0
  0
CLASS
  1
SCALE
  2
AcDbScale
  3
ObjectDBX Classes
 90
     1153
280
     0
281
     0
  0
CLASS
  1
MLEADERSTYLE
  2
AcDbMLeaderStyle
  3
ACDB_MLEADERSTYLE_CLASS
 90
     4095
280
     0
281
     0
  0
CLASS
  1
CELLSTYLEMAP
  2
AcDbCellStyleMap
  3
ObjectDBX Classes
 90
     1152
280
     0
281
     0
  0
CLASS
  1
SORTENTSTABLE
  2
AcDbSortentsTable
  3
ObjectDBX Classes
 90
        0
280
     0
281
     0
  0
CLASS
  1
RASTERVARIABLES
  2
AcDbRasterVariables
  3
ISM
 90
        0
280
     0
281
     0
  0
CLASS
  1
SUN
  2
AcDbSun
  3
SCENEOE
 90
     1153
280
     0
281
     0
  0
ENDSEC
  0
SECTION
  2
TABLES
  0
TABLE
  2
VPORT
  5
8
330
0
100
AcDbSymbolTable
 70
     1
  0
VPORT
  5
AFCE8
330
8
100
AcDbSymbolTableRecord
100
AcDbViewportTableRecord
  2
*Active
 70
     0
 10
0.0
 20
0.0
 11
1.0
 21
1.0
 12
1884.103510778217
 22
893.1772041710111
 13
0.0
 23
0.0
 14
1.0
 24
1.0
 15
20.0
 25
20.0
 16
0.0
 26
0.0
 36
1.0
 17
0.0
 27
0.0
 37
0.0
 40
110.3463775690648
 41
1.731829573934837
 42
50.0
 43
0.0
 44
0.0
 50
0.0
 51
0.0
 71
    16
 72
  2000
 73
     1
 74
     0
 75
     0
 76
     0
 77
     0
 78
     1
281
     0
 65
     1
110
0.0
120
0.0
130
0.0
111
1.0
121
0.0
131
0.0
112
0.0
122
1.0
132
0.0
 79
     0
146
0.0
  0
ENDTAB
  0
TABLE
  2
LTYPE
  5
5
330
0
100
AcDbSymbolTable
 70
     4
  0
LTYPE
  5
12
330
5
100
AcDbSymbolTableRecord
100
AcDbLinetypeTableRecord
  2
BYBLOCK
 70
     0
  3

 72
    65
 73
     0
 40
0.0
  0
LTYPE
  5
13
330
5
100
AcDbSymbolTableRecord
100
AcDbLinetypeTableRecord
  2
BYLAYER
 70
     0
  3

 72
    65
 73
     0
 40
0.0
  0
LTYPE
  5
14
330
5
100
AcDbSymbolTableRecord
100
AcDbLinetypeTableRecord
  2
CONTINUOUS
 70
     0
  3
Solid line
 72
    65
 73
     0
 40
0.0
  0
LTYPE
  5
3D
330
5
100
AcDbSymbolTableRecord
100
AcDbLinetypeTableRecord
  2
PHANTOM
 70
     0
  3
_____ _ _ _____ _ _ _____ _ _ _____ _ _ ____
 72
    65
 73
     6
 40
2.5
 49
1.25
 74
     0
 49
-0.25
 74
     0
 49
0.25
 74
     0
 49
-0.25
 74
     0
 49
0.25
 74
     0
 49
-0.25
 74
     0
  0
LTYPE
  5
40D2
330
5
100
AcDbSymbolTableRecord
100
AcDbLinetypeTableRecord
  2
CENTER
 70
     0
  3
____ _ ____ _ ____ _ ____ _ ____ _ ____ _ ____ 
 72
    65
 73
     4
 40
2.0
 49
1.25
 74
     0
 49
-0.25
 74
     0
 49
0.25
 74
     0
 49
-0.25
 74
     0
  0
LTYPE
  5
B76B4
330
5
100
AcDbSymbolTableRecord
100
AcDbLinetypeTableRecord
  2
HIDDEN
 70
     0
  3
_ _ _ _ _ _ _ _ _ _ _ _ _ _ _ _ _ _ _ _ _ _ _
 72
    65
 73
     2
 40
0.375
 49
0.25
 74
     0
 49
-0.125
 74
     0
  0
ENDTAB
  0
TABLE
  2
LAYER
  5
2
102
{ACAD_XDICTIONARY
360
ABE2A
102
}
330
0
100
AcDbSymbolTable
 70
    14
  0
LAYER
  5
F
102
{ACAD_XDICTIONARY
360
AEA34
102
}
330
2
100
AcDbSymbolTableRecord
100
AcDbLayerTableRecord
  2
0
 70
     0
 62
     7
  6
CONTINUOUS
370
    -3
390
40CA
  0
LAYER
  5
4C
102
{ACAD_XDICTIONARY
360
AEA3C
102
}
330
2
100
AcDbSymbolTableRecord
100
AcDbLayerTableRecord
  2
寸法線
 70
     0
 62
     7
  6
CONTINUOUS
370
    -3
390
40CA
  0
LAYER
  5
40D4
102
{ACAD_XDICTIONARY
360
AEA40
102
}
330
2
100
AcDbSymbolTableRecord
100
AcDbLayerTableRecord
  2
文字
 70
     0
 62
     7
  6
CONTINUOUS
370
    -3
390
40CA
  0
LAYER
  5
4F9B7
102
{ACAD_XDICTIONARY
360
AEA44
102
}
330
2
100
AcDbSymbolTableRecord
100
AcDbLayerTableRecord
  2
姿図
 70
     0
 62
     8
  6
CONTINUOUS
370
    -3
390
40CA
  0
ENDTAB
  0
TABLE
  2
STYLE
  5
3
330
0
100
AcDbSymbolTable
 70
     1
  0
STYLE
  5
10
330
3
100
AcDbSymbolTableRecord
100
AcDbTextStyleTableRecord
  2
STANDARD
 70
     0
 40
0.0
 41
1.0
 50
0.0
 71
     0
 42
6.0
  3
MONOTXT
  4
BIGFONT
  0
ENDTAB
  0
TABLE
  2
VIEW
  5
6
330
0
100
AcDbSymbolTable
 70
     1
  0
VIEW
  5
41
330
6
100
AcDbSymbolTableRecord
100
AcDbViewTableRecord
  2
CUT1
 70
     0
 40
612.7795527156796
 10
420.0000000000169
 20
306.3897763578398
 41
840.0000000000338
 11
0.0
 21
0.0
 31
1.0
 12
0.0
 22
0.0
 32
0.0
 42
50.0
 43
0.0
 44
0.0
 50
0.0
 71
     0
281
     0
 72
     0
  0
ENDTAB
  0
TABLE
  2
UCS
  5
7
330
0
100
AcDbSymbolTable
 70
     0
  0
ENDTAB
  0
TABLE
  2
APPID
  5
9
330
0
100
AcDbSymbolTable
 70
     9
  0
APPID
  5
11
330
9
100
AcDbSymbolTableRecord
100
AcDbRegAppTableRecord
  2
ACAD
 70
     0
  0
APPID
  5
ABE27
330
9
100
AcDbSymbolTableRecord
100
AcDbRegAppTableRecord
  2
GENIUS_GENODEF_13
 70
     0
  0
APPID
  5
ABE28
330
9
100
AcDbSymbolTableRecord
100
AcDbRegAppTableRecord
  2
GENIUS_GENREC_14
 70
     0
  0
APPID
  5
ABE29
330
9
100
AcDbSymbolTableRecord
100
AcDbRegAppTableRecord
  2
GENIUS_GENOBJ-N-REC_13
 70
     0
  0
APPID
  5
AE1BC
330
9
100
AcDbSymbolTableRecord
100
AcDbRegAppTableRecord
  2
ACAD_MLEADERVER
 70
     0
  0
APPID
  5
AEA29
330
9
100
AcDbSymbolTableRecord
100
AcDbRegAppTableRecord
  2
ACAD_EXEMPT_FROM_CAD_STANDARDS
 70
     0
  0
APPID
  5
AEA82
330
9
100
AcDbSymbolTableRecord
100
AcDbRegAppTableRecord
  2
ACAD_PSEXT
 70
     0
  0
APPID
  5
B86E1
330
9
100
AcDbSymbolTableRecord
100
AcDbRegAppTableRecord
  2
ACAD_DSTYLE_DIMJAG
 70
     0
  0
APPID
  5
B86E2
330
9
100
AcDbSymbolTableRecord
100
AcDbRegAppTableRecord
  2
ACAD_DSTYLE_DIMTALN
 70
     0
  0
ENDTAB
  0
TABLE
  2
DIMSTYLE
  5
A
330
0
100
AcDbSymbolTable
 70
     3
100
AcDbDimStyleTable
  0
DIMSTYLE
105
1B3A
330
A
100
AcDbSymbolTableRecord
100
AcDbDimStyleTableRecord
  2
STANDARD
 70
     0
 40
3.0
 41
2.5
 42
1.5
 43
7.0
 44
1.0
 73
     0
 74
     0
 77
     3
 78
     8
 79
     2
140
3.0
141
0.0
146
0.6
147
1.0
172
     1
176
     8
177
     8
271
     2
178
   256
179
     2
271
     2
272
     2
289
     0
340
10
341
B86DB
342
B86DB
372
    -1
1001
ACAD_DSTYLE_DIMJAG
1070
   388
1040
1.5
1001
ACAD_DSTYLE_DIMTALN
1070
   392
1070
     0
  0
ENDTAB
  0
TABLE
  2
BLOCK_RECORD
  5
1
330
0
100
AcDbSymbolTable
 70
    31
  0
BLOCK_RECORD
  5
18
102
{ACAD_XDICTIONARY
360
B753A
102
}
330
1
100
AcDbSymbolTableRecord
100
AcDbBlockTableRecord
  2
*MODEL_SPACE
340
40CD
  0
BLOCK_RECORD
  5
15
330
1
100
AcDbSymbolTableRecord
100
AcDbBlockTableRecord
  2
*PAPER_SPACE
340
40CE
  0
BLOCK_RECORD
  5
B060A
330
1
100
AcDbSymbolTableRecord
100
AcDbBlockTableRecord
  2
SUN
340
0
  0
BLOCK_RECORD
  5
B86DB
330
1
100
AcDbSymbolTableRecord
100
AcDbBlockTableRecord
  2
_Open30
340
0
102
{BLKREFS
331
C089E
331
C089F
331
C08A7
331
C08A8
331
C08B0
331
C08B1
331
C08B9
331
C08BA
331
C08C4
331
C08C5
331
C08CF
331
C08D0
331
C08DA
331
C08DB
331
C08E3
331
C08E4
331
C08EC
331
C08ED
331
C08F5
331
C08F6
331
C08FE
331
C08FF
331
C0907
331
C0908
331
C0912
331
C0913
331
C091B
331
C091C
331
C0938
331
C0939
331
C0943
331
C0944
331
C094E
331
C094F
331
C0957
331
C0958
331
C0960
331
C0961
331
C0969
331
C096A
331
C0972
331
C0973
331
C097A
331
C097B
331
C0985
331
C0986
331
C098E
331
C098F
331
C0997
331
C0998
331
C09A0
331
C09A1
331
C0AC2
331
C0AC3
331
C0ACB
331
C0ACC
102
}
  0
ENDTAB
  0
ENDSEC
  0
SECTION
  2
BLOCKS
  0
BLOCK
  5
52
330
18
100
AcDbEntity
  8
0
100
AcDbBlockBegin
  2
*MODEL_SPACE
 70
     0
 10
0.0
 20
0.0
 30
0.0
  3
*MODEL_SPACE
  1
*MODEL_SPACE
  0
ENDBLK
  5
53
330
18
100
AcDbEntity
  8
0
100
AcDbBlockEnd
  0
BLOCK
  5
50
330
15
100
AcDbEntity
 67
     1
  8
0
100
AcDbBlockBegin
  2
*PAPER_SPACE
 70
     0
 10
0.0
 20
0.0
 30
0.0
  3
*PAPER_SPACE
  1
*PAPER_SPACE
  0
ENDBLK
  5
51
330
15
100
AcDbEntity
 67
     1
  8
0
100
AcDbBlockEnd
  0
BLOCK
  5
B060B
330
B060A
100
AcDbEntity
  8
0
100
AcDbBlockBegin
  2
SUN
 70
     0
 10
0.0
 20
0.0
 30
0.0
  3
SUN
  1
SUN
  0
LINE
  5
B060C
330
B060A
100
AcDbEntity
  8
0
100
AcDbLine
 10
-0.0000000000000568
 20
0.0
 30
0.0
 11
-1.500000000000057
 21
0.0
 31
0.0
  0
LINE
  5
B060D
330
B060A
100
AcDbEntity
  8
0
100
AcDbLine
 10
-0.0000000000000568
 20
0.0000000000000284
 30
0.0
 11
-1.500000000000057
 21
0.401923788646684
 31
0.0
  0
LINE
  5
B060E
330
B060A
100
AcDbEntity
  8
0
100
AcDbLine
 10
-0.0000000000000568
 20
0.0000000000000284
 30
0.0
 11
-1.500000000000057
 21
-0.4019237886466556
 31
0.0
  0
ENDBLK
  5
B060F
330
B060A
100
AcDbEntity
  8
0
100
AcDbBlockEnd
  0
BLOCK
  5
B86DF
330
B86DB
100
AcDbEntity
  8
0
100
AcDbBlockBegin
  2
_Open30
 70
     0
 10
0.0
 20
0.0
 30
0.0
  3
_Open30
  1
_Open30
  0
LINE
  5
B86DC
330
B86DB
100
AcDbEntity
  8
0
  6
ByBlock
 62
     0
370
    -2
100
AcDbLine
 10
-1.0
 20
0.26794919
 30
0.0
 11
0.0
 21
0.0
 31
0.0
  0
LINE
  5
B86DD
330
B86DB
100
AcDbEntity
  8
0
  6
ByBlock
 62
     0
370
    -2
100
AcDbLine
 10
0.0
 20
0.0
 30
0.0
 11
-1.0
 21
-0.26794919
 31
0.0
  0
LINE
  5
B86DE
330
B86DB
100
AcDbEntity
  8
0
  6
ByBlock
 62
     0
370
    -2
100
AcDbLine
 10
0.0
 20
0.0
 30
0.0
 11
-1.0
 21
0.0
 31
0.0
  0
ENDBLK
  5
B86E0
330
B86DB
100
AcDbEntity
  8
0
100
AcDbBlockEnd
  0
ENDSEC
  0
SECTION
  2
ENTITIES
  0
TEXT
  5
AD040
330
18
100
AcDbEntity
  8
文字
100
AcDbText
 10
5077.06957343312
 20
-6167.803605830534
 30
0.0
 40
9.59973770029198
  1

100
AcDbText
  0
LINE
  5
B028A
330
18
100
AcDbEntity
  8
姿図
100
AcDbLine
 10
1936.115205498769
 20
913.6951129424729
 30
0.0
 11
1865.038551689866
 21
941.0868016044783
 31
0.0
  0
LINE
  5
B028B
330
18
100
AcDbEntity
  8
姿図
100
AcDbLine
 10
1936.115205498769
 20
918.3102732166558
 30
0.0
 11
1864.738551689865
 21
947.2685657244742
 31
0.0
  0
LINE
  5
B028C
330
18
100
AcDbEntity
  8
姿図
100
AcDbLine
 10
1942.074163136869
 20
892.5344099290282
 30
0.0
 11
1863.747439023153
 21
916.9417332995158
 31
0.0
  0
LINE
  5
B028D
330
18
100
AcDbEntity
  8
姿図
100
AcDbLine
 10
1942.074163136869
 20
891.8598500760686
 30
0.0
 11
1863.747439023153
 21
915.7641389415817
 31
0.0
  0
LINE
  5
B028E
330
18
100
AcDbEntity
  8
姿図
100
AcDbLine
 10
1935.738923130593
 20
891.8792640665101
 30
0.0
 11
1864.738551689861
 21
912.3919273657534
 31
0.0
  0
LINE
  5
B028F
330
18
100
AcDbEntity
  8
姿図
100
AcDbLine
 10
1935.785027814767
 20
913.5930363613575
 30
0.0
 11
1864.708374005868
 21
940.8898173023422
 31
0.0
  0
LINE
  5
B0290
330
18
100
AcDbEntity
  8
姿図
100
AcDbLine
 10
1908.152514890722
 20
883.4181789082227
 30
0.0
 11
1832.093790691519
 21
898.1105853636741
 31
0.0
  0
LINE
  5
B02A4
330
18
100
AcDbEntity
  8
姿図
100
AcDbLine
 10
1908.154399410301
 20
884.9341492046965
 30
0.0
 11
1839.725419206936
 21
898.7196722346757
 31
0.0
  0
LINE
  5
B02A5
330
18
100
AcDbEntity
  8
姿図
100
AcDbLine
 10
1839.725419206936
 20
898.7196722346757
 30
0.0
 11
1832.093790691522
 21
898.1105853636741
 31
0.0
  0
LINE
  5
B02A6
330
18
100
AcDbEntity
  8
姿図
100
AcDbLine
 10
1832.093790691522
 20
899.1824020394283
 30
0.0
 11
1863.747439023153
 21
916.9417332995158
 31
0.0
  0
LINE
  5
B02A7
330
18
100
AcDbEntity
  8
姿図
100
AcDbLine
 10
1832.093790691522
 20
898.1105853636741
 30
0.0
 11
1863.747439023153
 21
915.7641389415817
 31
0.0
  0
LINE
  5
B02A8
330
18
100
AcDbEntity
  8
姿図
100
AcDbLine
 10
1832.093790691519
 20
898.1105853636741
 30
0.0
 11
1832.093790691519
 21
899.1824020394283
 31
0.0
  0
LINE
  5
B02A9
330
18
100
AcDbEntity
  8
姿図
100
AcDbLine
 10
1875.698505655595
 20
921.9062100994347
 30
0.0
 11
1885.181264832108
 21
927.9092649116578
 31
0.0
  0
LINE
  5
B02AA
330
18
100
AcDbEntity
  8
姿図
100
AcDbLine
 10
1882.605216197124
 20
919.4248932797259
 30
0.0
 11
1890.941355367495
 21
924.5135584810055
 31
0.0
  0
LINE
  5
B02AB
330
18
100
AcDbEntity
  8
姿図
100
AcDbLine
 10
1864.738551689861
 20
912.3919273657534
 30
0.0
 11
1863.747439023153
 21
915.7641389415817
 31
0.0
  0
LINE
  5
B02AC
330
18
100
AcDbEntity
  8
姿図
100
AcDbLine
 10
1863.747439023153
 20
915.7641389415817
 30
0.0
 11
1863.747439023153
 21
916.9417332995158
 31
0.0
  0
LINE
  5
B02AD
330
18
100
AcDbEntity
  8
姿図
100
AcDbLine
 10
1864.708374005857
 20
916.644628577958
 30
0.0
 11
1864.708374005859
 21
935.7565594254024
 31
0.0
  0
LINE
  5
B02AE
330
18
100
AcDbEntity
  8
姿図
100
AcDbLine
 10
1864.708374005861
 20
916.644628577958
 30
0.0
 11
1864.708374005862
 21
940.8898173023458
 31
0.0
  0
LINE
  5
B02AF
330
18
100
AcDbEntity
  8
姿図
100
AcDbLine
 10
1878.884744753281
 20
912.2248104345076
 30
0.0
 11
1882.605216197126
 21
919.4248932797277
 31
0.0
  0
LINE
  5
B02B0
330
18
100
AcDbEntity
  8
姿図
100
AcDbLine
 10
1882.605216197124
 20
919.4248932797259
 30
0.0
 11
1875.698505655595
 21
921.9062100994347
 31
0.0
  0
LINE
  5
B02B1
330
18
100
AcDbEntity
  8
姿図
100
AcDbLine
 10
1871.831553701635
 20
914.4226492531138
 30
0.0
 11
1875.698505655595
 21
921.9062100994365
 31
0.0
  0
LINE
  5
B02B2
330
18
100
AcDbEntity
  8
姿図
100
AcDbLine
 10
1865.038551689866
 20
941.0868016044783
 30
0.0
 11
1864.738551689865
 21
941.2026682552582
 31
0.0
  0
LINE
  5
B02B3
330
18
100
AcDbEntity
  8
姿図
100
AcDbLine
 10
1864.738551689865
 20
941.2026682552582
 30
0.0
 11
1864.738551689865
 21
947.2685657244742
 31
0.0
  0
LINE
  5
B02B4
330
18
100
AcDbEntity
  8
姿図
100
AcDbLine
 10
1838.757856779859
 20
924.117117100514
 30
0.0
 11
1838.457856779858
 21
924.2329837512939
 31
0.0
  0
LINE
  5
B02B5
330
18
100
AcDbEntity
  8
姿図
100
AcDbLine
 10
1838.457856779858
 20
924.2329837512939
 30
0.0
 11
1838.457856779856
 21
929.4050319315415
 31
0.0
  0
LINE
  5
B02B6
330
18
100
AcDbEntity
  8
姿図
100
AcDbLine
 10
1838.757856779857
 20
902.921287237174
 30
0.0
 11
1838.757856779859
 21
924.117117100514
 31
0.0
  0
LINE
  5
B02B7
330
18
100
AcDbEntity
  8
姿図
100
AcDbLine
 10
1838.757856779859
 20
924.117117100514
 30
0.0
 11
1865.038551689864
 21
941.0868016044856
 31
0.0
  0
LINE
  5
B02B8
330
18
100
AcDbEntity
  8
姿図
100
AcDbLine
 10
1838.457856779858
 20
924.2329837512939
 30
0.0
 11
1864.738551689865
 21
941.2026682552582
 31
0.0
  0
LINE
  5
B02B9
330
18
100
AcDbEntity
  8
姿図
100
AcDbLine
 10
1838.457856779856
 20
929.4050319315415
 30
0.0
 11
1864.738551689865
 21
947.2685657244742
 31
0.0
  0
LINE
  5
B02BA
330
18
100
AcDbEntity
  8
姿図
100
AcDbLine
 10
1839.725419206936
 20
898.7196722346757
 30
0.0
 11
1864.738551689861
 21
912.3919273657534
 31
0.0
  0
LINE
  5
B02BB
330
18
100
AcDbEntity
  8
姿図
100
AcDbLine
 10
1892.309130699565
 20
925.3484954456148
 30
0.0
 11
1891.984949574115
 21
924.138635014579
 31
0.0
  0
LINE
  5
B02BC
330
18
100
AcDbEntity
  8
姿図
100
AcDbLine
 10
1885.181264832107
 20
927.9092649116578
 30
0.0
 11
1884.857083706656
 21
926.699404480622
 31
0.0
  0
LINE
  5
B02BD
330
18
100
AcDbEntity
  8
姿図
100
AcDbLine
 10
1891.984949574115
 20
924.138635014579
 30
0.0
 11
1884.857083706656
 21
926.699404480622
 31
0.0
  0
LINE
  5
B02BE
330
18
100
AcDbEntity
  8
姿図
100
AcDbLine
 10
1892.309130699565
 20
925.3484954456148
 30
0.0
 11
1885.181264832107
 21
927.9092649116578
 31
0.0
  0
LINE
  5
B02BF
330
18
100
AcDbEntity
  8
姿図
100
AcDbLine
 10
1932.513419887839
 20
903.4550699137558
 30
0.0
 11
1940.43275209969
 21
908.2893018549717
 31
0.0
  0
LINE
  5
B02C0
330
18
100
AcDbEntity
  8
姿図
100
AcDbLine
 10
1908.152514890722
 20
883.4181789082227
 30
0.0
 11
1942.074163136869
 21
891.8598500760686
 31
0.0
  0
LINE
  5
B02C1
330
18
100
AcDbEntity
  8
姿図
100
AcDbLine
 10
1908.154399410301
 20
884.9341492046965
 30
0.0
 11
1935.738923130593
 21
891.8792640665101
 31
0.0
  0
LINE
  5
B02C4
330
18
100
AcDbEntity
  8
姿図
100
AcDbLine
 10
1925.952044873386
 20
905.8123208924785
 30
0.0
 11
1934.960666091072
 21
911.5152229640912
 31
0.0
  0
LINE
  5
B02C5
330
18
100
AcDbEntity
  8
姿図
100
AcDbLine
 10
1928.978972016188
 20
896.614991210798
 30
0.0
 11
1932.513419887839
 21
903.4550699137558
 31
0.0
  0
LINE
  5
B02C7
330
18
100
AcDbEntity
  8
姿図
100
AcDbLine
 10
1922.278440517124
 20
898.7029380884746
 30
0.0
 11
1925.952044873386
 21
905.8123208924794
 31
0.0
  0
LINE
  5
B02D2
330
18
100
AcDbEntity
  8
姿図
100
AcDbLine
 10
1908.154399410301
 20
884.9341492046965
 30
0.0
 11
1908.154399410301
 21
899.8486878295489
 31
0.0
  0
LINE
  5
B02DB
330
18
100
AcDbEntity
  8
姿図
100
AcDbLine
 10
1932.513419887839
 20
903.4550699137558
 30
0.0
 11
1925.952044873386
 21
905.8123208924776
 31
0.0
  0
LINE
  5
B02DC
330
18
100
AcDbEntity
  8
姿図
100
AcDbLine
 10
1942.074163136869
 20
891.8598500760686
 30
0.0
 11
1942.074163136869
 21
892.5344099290282
 31
0.0
  0
LINE
  5
B02DD
330
18
100
AcDbEntity
  8
姿図
100
AcDbLine
 10
1935.785027814767
 20
913.5930363613575
 30
0.0
 11
1936.115205498767
 21
913.695112942471
 31
0.0
  0
LINE
  5
B02DE
330
18
100
AcDbEntity
  8
姿図
100
AcDbLine
 10
1936.115205498769
 20
913.6951129424729
 30
0.0
 11
1936.115205498769
 21
918.3102732166558
 31
0.0
  0
LINE
  5
B02DF
330
18
100
AcDbEntity
  8
姿図
100
AcDbLine
 10
1941.732138665157
 20
909.0824919713509
 30
0.0
 11
1941.424166595978
 21
907.9331245618664
 31
0.0
  0
LINE
  5
B02E0
330
18
100
AcDbEntity
  8
姿図
100
AcDbLine
 10
1934.960666091072
 20
911.5152229640912
 30
0.0
 11
1934.652694021894
 21
910.3658555546067
 31
0.0
  0
LINE
  5
B02E1
330
18
100
AcDbEntity
  8
姿図
100
AcDbLine
 10
1941.424166595978
 20
907.9331245618664
 30
0.0
 11
1934.652694021894
 21
910.3658555546067
 31
0.0
  0
LINE
  5
B02E2
330
18
100
AcDbEntity
  8
姿図
100
AcDbLine
 10
1941.732138665157
 20
909.0824919713509
 30
0.0
 11
1934.960666091072
 21
911.5152229640912
 31
0.0
  0
LINE
  5
B02E3
330
18
100
AcDbEntity
  8
姿図
100
AcDbLine
 10
1935.785027814767
 20
911.219061340084
 30
0.0
 11
1935.785027814767
 21
913.5930363613575
 31
0.0
  0
LINE
  5
B02E4
330
18
100
AcDbEntity
  8
姿図
100
AcDbLine
 10
1935.785027814767
 20
894.4941619965907
 30
0.0
 11
1935.785027814767
 21
905.452171577937
 31
0.0
  0
TEXT
  5
B0472
330
18
100
AcDbEntity
  8
文字
100
AcDbText
 10
1826.132858419566
 20
839.085842617548
 30
0.0
 40
14.4
  1
SX-LG082
100
AcDbText
  0
LINE
  5
C0A45
330
18
100
AcDbEntity
  8
姿図
100
AcDbLine
 10
1908.154399410301
 20
884.9341492046965
 30
0.0
 11
1908.152514890722
 21
883.4181789082227
 31
0.0
  0
LINE
  5
C0A46
330
18
100
AcDbEntity
  8
姿図
100
AcDbLine
 10
1935.738923130593
 20
891.8792640665101
 30
0.0
 11
1942.074163136869
 21
891.8598500760686
 31
0.0
  0
LINE
  5
C0B23
330
18
100
AcDbEntity
  8
姿図
100
AcDbLine
 10
1908.154399410301
 20
885.4441945643789
 30
0.0
 11
1840.407242924038
 21
899.0923591750658
 31
0.0
  0
LINE
  5
C0B25
330
18
100
AcDbEntity
  8
姿図
100
AcDbLine
 10
1908.154399410301
 20
885.954239924061
 30
0.0
 11
1841.08906664114
 21
899.4650461154562
 31
0.0
  0
LINE
  5
C0B27
330
18
100
AcDbEntity
  8
姿図
100
AcDbLine
 10
1908.154399410301
 20
886.4642852837432
 30
0.0
 11
1841.770890358242
 21
899.8377330558466
 31
0.0
  0
LINE
  5
C0B29
330
18
100
AcDbEntity
  8
姿図
100
AcDbLine
 10
1908.154399410301
 20
886.9743306434252
 30
0.0
 11
1842.452714075344
 21
900.2104199962367
 31
0.0
  0
LINE
  5
C0B2B
330
18
100
AcDbEntity
  8
姿図
100
AcDbLine
 10
1908.154399410301
 20
887.4843760031077
 30
0.0
 11
1843.134537792445
 21
900.5831069366269
 31
0.0
  0
LINE
  5
C0B2D
330
18
100
AcDbEntity
  8
姿図
100
AcDbLine
 10
1908.154399410301
 20
887.9944213627897
 30
0.0
 11
1843.816361509547
 21
900.9557938770171
 31
0.0
  0
LINE
  5
C0B2F
330
18
100
AcDbEntity
  8
姿図
100
AcDbLine
 10
1908.154399410301
 20
888.5044667224719
 30
0.0
 11
1844.498185226649
 21
901.3284808174072
 31
0.0
  0
LINE
  5
C0B31
330
18
100
AcDbEntity
  8
姿図
100
AcDbLine
 10
1908.154399410301
 20
889.0145120821542
 30
0.0
 11
1845.180008943751
 21
901.7011677577977
 31
0.0
  0
LINE
  5
C0B33
330
18
100
AcDbEntity
  8
姿図
100
AcDbLine
 10
1908.154399410302
 20
889.5245574418365
 30
0.0
 11
1845.861832660853
 21
902.0738546981879
 31
0.0
  0
LINE
  5
C0B35
330
18
100
AcDbEntity
  8
姿図
100
AcDbLine
 10
1908.154399410301
 20
890.0346028015185
 30
0.0
 11
1846.543656377955
 21
902.4465416385781
 31
0.0
  0
LINE
  5
C0B37
330
18
100
AcDbEntity
  8
姿図
100
AcDbLine
 10
1908.154399410301
 20
890.5446481612006
 30
0.0
 11
1847.225480095057
 21
902.8192285789683
 31
0.0
  0
LINE
  5
C0B39
330
18
100
AcDbEntity
  8
姿図
100
AcDbLine
 10
1908.154399410301
 20
891.0546935208828
 30
0.0
 11
1847.907303812159
 21
903.1919155193586
 31
0.0
  0
LINE
  5
C0B3B
330
18
100
AcDbEntity
  8
姿図
100
AcDbLine
 10
1908.154399410301
 20
891.5647388805651
 30
0.0
 11
1848.589127529261
 21
903.5646024597488
 31
0.0
  0
LINE
  5
C0B3D
330
18
100
AcDbEntity
  8
姿図
100
AcDbLine
 10
1908.154399410301
 20
892.0747842402473
 30
0.0
 11
1849.270951246363
 21
903.9372894001391
 31
0.0
  0
LINE
  5
C0B3F
330
18
100
AcDbEntity
  8
姿図
100
AcDbLine
 10
1908.154399410301
 20
892.5848295999297
 30
0.0
 11
1849.952774963465
 21
904.3099763405293
 31
0.0
  0
LINE
  5
C0B41
330
18
100
AcDbEntity
  8
姿図
100
AcDbLine
 10
1908.154399410301
 20
893.0948749596117
 30
0.0
 11
1850.634598680567
 21
904.6826632809194
 31
0.0
  0
LINE
  5
C0B43
330
18
100
AcDbEntity
  8
姿図
100
AcDbLine
 10
1908.154399410301
 20
893.6049203192937
 30
0.0
 11
1851.316422397669
 21
905.0553502213098
 31
0.0
  0
LINE
  5
C0B45
330
18
100
AcDbEntity
  8
姿図
100
AcDbLine
 10
1908.154399410301
 20
894.1149656789763
 30
0.0
 11
1851.998246114771
 21
905.4280371617
 31
0.0
  0
LINE
  5
C0B47
330
18
100
AcDbEntity
  8
姿図
100
AcDbLine
 10
1908.154399410301
 20
894.6250110386583
 30
0.0
 11
1852.680069831872
 21
905.8007241020904
 31
0.0
  0
LINE
  5
C0B49
330
18
100
AcDbEntity
  8
姿図
100
AcDbLine
 10
1908.154399410301
 20
895.1350563983405
 30
0.0
 11
1853.361893548974
 21
906.1734110424806
 31
0.0
  0
LINE
  5
C0B4B
330
18
100
AcDbEntity
  8
姿図
100
AcDbLine
 10
1908.154399410301
 20
895.6451017580227
 30
0.0
 11
1854.043717266076
 21
906.5460979828707
 31
0.0
  0
LINE
  5
C0B4D
330
18
100
AcDbEntity
  8
姿図
100
AcDbLine
 10
1908.154399410302
 20
896.1551471177047
 30
0.0
 11
1854.725540983178
 21
906.9187849232609
 31
0.0
  0
LINE
  5
C0B4F
330
18
100
AcDbEntity
  8
姿図
100
AcDbLine
 10
1908.154399410301
 20
896.665192477387
 30
0.0
 11
1855.40736470028
 21
907.2914718636512
 31
0.0
  0
LINE
  5
C0B51
330
18
100
AcDbEntity
  8
姿図
100
AcDbLine
 10
1908.154399410301
 20
897.1752378370692
 30
0.0
 11
1856.089188417382
 21
907.6641588040416
 31
0.0
  0
LINE
  5
C0B53
330
18
100
AcDbEntity
  8
姿図
100
AcDbLine
 10
1908.154399410301
 20
897.6852831967515
 30
0.0
 11
1856.771012134484
 21
908.0368457444317
 31
0.0
  0
LINE
  5
C0B55
330
18
100
AcDbEntity
  8
姿図
100
AcDbLine
 10
1908.154399410301
 20
898.1953285564334
 30
0.0
 11
1857.452835851586
 21
908.4095326848219
 31
0.0
  0
LINE
  5
C0B57
330
18
100
AcDbEntity
  8
姿図
100
AcDbLine
 10
1908.154399410301
 20
898.7053739161158
 30
0.0
 11
1858.134659568688
 21
908.7822196252121
 31
0.0
  0
LINE
  5
C0B59
330
18
100
AcDbEntity
  8
姿図
100
AcDbLine
 10
1908.154399410301
 20
899.2154192757979
 30
0.0
 11
1858.81648328579
 21
909.1549065656025
 31
0.0
  0
LINE
  5
C0B5B
330
18
100
AcDbEntity
  8
姿図
100
AcDbLine
 10
1908.154399410301
 20
899.72546463548
 30
0.0
 11
1859.498307002892
 21
909.5275935059927
 31
0.0
  0
LINE
  5
C0B5D
330
18
100
AcDbEntity
  8
姿図
100
AcDbLine
 10
1903.73114110003
 20
901.126608022966
 30
0.0
 11
1860.180130719993
 21
909.900280446383
 31
0.0
  0
LINE
  5
C0B5F
330
18
100
AcDbEntity
  8
姿図
100
AcDbLine
 10
1897.89884249777
 20
902.8116129752099
 30
0.0
 11
1860.861954437095
 21
910.2729673867732
 31
0.0
  0
LINE
  5
C0B61
330
18
100
AcDbEntity
  8
姿図
100
AcDbLine
 10
1892.066543895508
 20
904.4966179274535
 30
0.0
 11
1861.543778154197
 21
910.6456543271635
 31
0.0
  0
LINE
  5
C0B63
330
18
100
AcDbEntity
  8
姿図
100
AcDbLine
 10
1886.234245293252
 20
906.181622879697
 30
0.0
 11
1862.225601871299
 21
911.0183412675536
 31
0.0
  0
LINE
  5
C0B65
330
18
100
AcDbEntity
  8
姿図
100
AcDbLine
 10
1880.401946690991
 20
907.8666278319413
 30
0.0
 11
1862.907425588401
 21
911.3910282079438
 31
0.0
  0
LINE
  5
C0B67
330
18
100
AcDbEntity
  8
姿図
100
AcDbLine
 10
1874.569648088734
 20
909.5516327841855
 30
0.0
 11
1863.589249305503
 21
911.7637151483342
 31
0.0
  0
LINE
  5
C0B69
330
18
100
AcDbEntity
  8
姿図
100
AcDbLine
 10
1868.737349486473
 20
911.2366377364294
 30
0.0
 11
1864.271073022605
 21
912.1364020887244
 31
0.0
  0
LINE
  5
C0B6B
330
18
100
AcDbEntity
  8
姿図
100
AcDbLine
 10
1908.154399410301
 20
885.4441945643789
 30
0.0
 11
1934.795591346991
 21
892.1518013344689
 31
0.0
  0
LINE
  5
C0B6C
330
18
100
AcDbEntity
  8
姿図
100
AcDbLine
 10
1908.154399410301
 20
885.954239924061
 30
0.0
 11
1933.85225956339
 21
892.4243386024274
 31
0.0
  0
LINE
  5
C0B6D
330
18
100
AcDbEntity
  8
姿図
100
AcDbLine
 10
1908.154399410301
 20
886.4642852837432
 30
0.0
 11
1932.908927779788
 21
892.6968758703858
 31
0.0
  0
LINE
  5
C0B6E
330
18
100
AcDbEntity
  8
姿図
100
AcDbLine
 10
1908.154399410301
 20
886.9743306434252
 30
0.0
 11
1931.965595996187
 21
892.969413138344
 31
0.0
  0
LINE
  5
C0B6F
330
18
100
AcDbEntity
  8
姿図
100
AcDbLine
 10
1908.154399410301
 20
887.4843760031077
 30
0.0
 11
1931.022264212584
 21
893.2419504063029
 31
0.0
  0
LINE
  5
C0B70
330
18
100
AcDbEntity
  8
姿図
100
AcDbLine
 10
1908.154399410301
 20
887.9944213627897
 30
0.0
 11
1930.078932428983
 21
893.5144876742613
 31
0.0
  0
LINE
  5
C0B71
330
18
100
AcDbEntity
  8
姿図
100
AcDbLine
 10
1908.154399410301
 20
888.5044667224719
 30
0.0
 11
1929.135600645382
 21
893.7870249422197
 31
0.0
  0
LINE
  5
C0B72
330
18
100
AcDbEntity
  8
姿図
100
AcDbLine
 10
1908.154399410301
 20
889.0145120821542
 30
0.0
 11
1928.192268861779
 21
894.0595622101783
 31
0.0
  0
LINE
  5
C0B73
330
18
100
AcDbEntity
  8
姿図
100
AcDbLine
 10
1908.154399410302
 20
889.5245574418365
 30
0.0
 11
1927.248937078178
 21
894.3320994781368
 31
0.0
  0
LINE
  5
C0B74
330
18
100
AcDbEntity
  8
姿図
100
AcDbLine
 10
1908.154399410301
 20
890.0346028015185
 30
0.0
 11
1926.305605294576
 21
894.6046367460953
 31
0.0
  0
LINE
  5
C0B75
330
18
100
AcDbEntity
  8
姿図
100
AcDbLine
 10
1908.154399410301
 20
890.5446481612006
 30
0.0
 11
1925.362273510975
 21
894.8771740140537
 31
0.0
  0
LINE
  5
C0B76
330
18
100
AcDbEntity
  8
姿図
100
AcDbLine
 10
1908.154399410301
 20
891.0546935208828
 30
0.0
 11
1924.418941727373
 21
895.1497112820122
 31
0.0
  0
LINE
  5
C0B77
330
18
100
AcDbEntity
  8
姿図
100
AcDbLine
 10
1908.154399410301
 20
891.5647388805651
 30
0.0
 11
1923.475609943771
 21
895.422248549971
 31
0.0
  0
LINE
  5
C0B78
330
18
100
AcDbEntity
  8
姿図
100
AcDbLine
 10
1908.154399410301
 20
892.0747842402473
 30
0.0
 11
1922.53227816017
 21
895.6947858179293
 31
0.0
  0
LINE
  5
C0B79
330
18
100
AcDbEntity
  8
姿図
100
AcDbLine
 10
1908.154399410301
 20
892.5848295999297
 30
0.0
 11
1921.588946376568
 21
895.9673230858879
 31
0.0
  0
LINE
  5
C0B7A
330
18
100
AcDbEntity
  8
姿図
100
AcDbLine
 10
1908.154399410301
 20
893.0948749596117
 30
0.0
 11
1920.645614592966
 21
896.2398603538463
 31
0.0
  0
LINE
  5
C0B7B
330
18
100
AcDbEntity
  8
姿図
100
AcDbLine
 10
1908.154399410301
 20
893.6049203192937
 30
0.0
 11
1919.702282809365
 21
896.5123976218047
 31
0.0
  0
LINE
  5
C0B7C
330
18
100
AcDbEntity
  8
姿図
100
AcDbLine
 10
1908.154399410301
 20
894.1149656789763
 30
0.0
 11
1918.758951025762
 21
896.7849348897635
 31
0.0
  0
LINE
  5
C0B7D
330
18
100
AcDbEntity
  8
姿図
100
AcDbLine
 10
1908.154399410301
 20
894.6250110386583
 30
0.0
 11
1917.815619242161
 21
897.0574721577218
 31
0.0
  0
LINE
  5
C0B7E
330
18
100
AcDbEntity
  8
姿図
100
AcDbLine
 10
1908.154399410301
 20
895.1350563983405
 30
0.0
 11
1916.872287458559
 21
897.3300094256804
 31
0.0
  0
LINE
  5
C0B7F
330
18
100
AcDbEntity
  8
姿図
100
AcDbLine
 10
1908.154399410301
 20
895.6451017580227
 30
0.0
 11
1915.928955674958
 21
897.6025466936389
 31
0.0
  0
LINE
  5
C0B80
330
18
100
AcDbEntity
  8
姿図
100
AcDbLine
 10
1908.154399410302
 20
896.1551471177047
 30
0.0
 11
1914.985623891356
 21
897.8750839615972
 31
0.0
  0
LINE
  5
C0B81
330
18
100
AcDbEntity
  8
姿図
100
AcDbLine
 10
1908.154399410301
 20
896.665192477387
 30
0.0
 11
1914.042292107755
 21
898.1476212295557
 31
0.0
  0
LINE
  5
C0B82
330
18
100
AcDbEntity
  8
姿図
100
AcDbLine
 10
1908.154399410301
 20
897.1752378370692
 30
0.0
 11
1913.098960324153
 21
898.4201584975143
 31
0.0
  0
LINE
  5
C0B83
330
18
100
AcDbEntity
  8
姿図
100
AcDbLine
 10
1908.154399410301
 20
897.6852831967515
 30
0.0
 11
1912.15562854055
 21
898.6926957654729
 31
0.0
  0
LINE
  5
C0B84
330
18
100
AcDbEntity
  8
姿図
100
AcDbLine
 10
1908.154399410301
 20
898.1953285564334
 30
0.0
 11
1911.21229675695
 21
898.9652330334312
 31
0.0
  0
LINE
  5
C0B85
330
18
100
AcDbEntity
  8
姿図
100
AcDbLine
 10
1908.154399410301
 20
898.7053739161158
 30
0.0
 11
1910.268964973347
 21
899.2377703013899
 31
0.0
  0
LINE
  5
C0B86
330
18
100
AcDbEntity
  8
姿図
100
AcDbLine
 10
1908.154399410301
 20
899.2154192757979
 30
0.0
 11
1909.325633189746
 21
899.5103075693484
 31
0.0
  0
LINE
  5
C0B89
330
18
100
AcDbEntity
  8
姿図
100
AcDbLine
 10
1908.154399410301
 20
899.72546463548
 30
0.0
 11
1908.382301406145
 21
899.7828448373068
 31
0.0
  0
VIEWPORT
  5
3DEAB
102
{ACAD_XDICTIONARY
360
C0B97
102
}
330
15
100
AcDbEntity
 67
     1
  8
0
100
AcDbViewport
 10
0.0
 20
0.0
 30
0.0
 40
0.0
 41
0.0
 68
     1
 69
     1
 12
0.0
 22
0.0
 13
0.0
 23
0.0
 14
10.0
 24
10.0
 15
10.0
 25
10.0
 16
0.0
 26
0.0
 36
1.0
 17
0.0
 27
0.0
 37
0.0
 42
50.0
 43
0.0
 44
0.0
 45
0.0
 50
0.0
 51
0.0
 72
  2000
 90
    32800
  1

281
     0
 71
     1
 74
     0
110
0.0
120
0.0
130
0.0
111
1.0
121
0.0
131
0.0
112
0.0
122
1.0
132
0.0
 79
     0
146
0.0
  0
VIEWPORT
  5
3DEAD
102
{ACAD_XDICTIONARY
360
C0B99
102
}
330
15
100
AcDbEntity
 67
     1
  8
0
100
AcDbViewport
 10
0.0
 20
0.0
 30
0.0
 40
1.0
 41
1.0
 68
     2
 69
     2
 12
971.241193259797
 22
-1741.641485065708
 13
0.0
 23
0.0
 14
1.0
 24
1.0
 15
20.0
 25
20.0
 16
0.0
 26
0.0
 36
1.0
 17
0.0
 27
0.0
 37
0.0
 42
50.0
 43
0.0
 44
0.0
 45
403.5416950968178
 50
0.0
 51
0.0
 72
  2000
 90
    36864
  1

281
     0
 71
     1
 74
     0
110
0.0
120
0.0
130
0.0
111
1.0
121
0.0
131
0.0
112
0.0
122
1.0
132
0.0
 79
     0
146
0.0
  0
ENDSEC
  0
SECTION
  2
OBJECTS
  0
DICTIONARY
  5
C
330
0
100
AcDbDictionary
281
     1
  3
ACAD_GROUP
350
D
  3
ACAD_IMAGE_VARS
350
C0BA0
  3
ACAD_LAYOUT
350
40CB
  3
ACAD_MLINESTYLE
350
E
  3
ACAD_PLOTSETTINGS
350
40CC
  3
ACAD_PLOTSTYLENAME
350
40C9
  3
ACAD_SCALELIST
350
AE198
  3
AcadDim
350
8297D
  3
AcDbVariableDictionary
350
6377
  3
APPDATA
350
C0B9F
  3
DWGPROPS
350
C0BC7
  0
DICTIONARY
  5
ABE2A
330
2
100
AcDbDictionary
280
     1
281
     1
  3
ACAD_LAYERSTATES
360
ABE2B
  0
DICTIONARY
  5
AEA34
330
F
100
AcDbDictionary
280
     1
281
     1
  3
ADSK_XREC_LAYER_RECONCILED
360
AEA35
  0
DICTIONARY
  5
AEA3C
330
4C
100
AcDbDictionary
280
     1
281
     1
  3
ADSK_XREC_LAYER_RECONCILED
360
AEA3D
  0
DICTIONARY
  5
AEA40
330
40D4
100
AcDbDictionary
280
     1
281
     1
  3
ADSK_XREC_LAYER_RECONCILED
360
AEA41
  0
DICTIONARY
  5
AEA44
330
4F9B7
100
AcDbDictionary
280
     1
281
     1
  3
ADSK_XREC_LAYER_RECONCILED
360
AEA45
  0
DICTIONARY
  5
B753A
330
18
100
AcDbDictionary
280
     1
281
     1
  3
ACAD_SORTENTS
360
B753B
  0
DICTIONARY
  5
C0B97
330
3DEAB
100
AcDbDictionary
280
     1
281
     1
  3
ACAD_XREC_ROUNDTRIP
360
C0B98
  0
DICTIONARY
  5
C0B99
330
3DEAD
100
AcDbDictionary
280
     1
281
     1
  3
ACAD_XREC_ROUNDTRIP
360
C0B9A
  0
DICTIONARY
  5
D
102
{ACAD_REACTORS
330
C
102
}
330
C
100
AcDbDictionary
281
     1
  0
RASTERVARIABLES
  5
C0BA0
102
{ACAD_REACTORS
330
C
102
}
330
C
100
AcDbRasterVariables
 90
        0
 70
     1
 71
     1
 72
     0
  0
DICTIONARY
  5
40CB
102
{ACAD_REACTORS
330
C
102
}
330
C
100
AcDbDictionary
281
     1
  3
Model
350
40CD
  3
ﾚｲｱｳﾄ1
350
40CE
  0
DICTIONARY
  5
E
102
{ACAD_REACTORS
330
C
102
}
330
C
100
AcDbDictionary
281
     1
  3
STANDARD
350
1B
  0
DICTIONARY
  5
40CC
102
{ACAD_REACTORS
330
C
102
}
330
C
100
AcDbDictionary
281
     1
  0
ACDBDICTIONARYWDFLT
  5
40C9
102
{ACAD_REACTORS
330
C
102
}
330
C
100
AcDbDictionary
281
     1
  3
Normal
350
40CA
100
AcDbDictionaryWithDefault
340
40CA
  0
DICTIONARY
  5
AE198
102
{ACAD_REACTORS
330
C
102
}
330
C
100
AcDbDictionary
281
     1
  3
A0
350
AE199
  3
A1
350
AE19A
  3
A2
350
AE19B
  3
A3
350
AE19C
  3
A4
350
AE19D
  3
A5
350
AE19E
  3
A6
350
AE19F
  3
A7
350
AE1A0
  3
A8
350
AE1A1
  3
A9
350
AE1A2
  3
B0
350
AE1A3
  3
B1
350
AE1A4
  3
B2
350
AE1A5
  3
B3
350
AE1A6
  3
B4
350
AE1A7
  3
B5
350
AE1A8
  3
B6
350
AE1A9
  3
B7
350
AE1AA
  3
B8
350
AE1AB
  3
B9
350
AE1AC
  3
C0
350
AE1AD
  3
C1
350
AE1AE
  3
C2
350
AE1AF
  3
C3
350
AE1B0
  3
C4
350
AE1B1
  3
C5
350
AE1B2
  3
C6
350
AE1B3
  3
C7
350
AE1B4
  3
C8
350
AE1B5
  3
C9
350
AE1B6
  3
D0
350
AE1B7
  3
D1
350
AE1B8
  3
D2
350
AE1B9
  0
XRECORD
  5
8297D
102
{ACAD_REACTORS
330
C
102
}
330
C
100
AcDbXrecord
280
     1
 90
   990106
  3

 60
     0
 61
     0
 62
     1
 63
     3
 64
     1
 65
     0
 66
     0
 67
     3
 68
     1
 69
     0
 70
     0
 71
     0
 72
     0
 40
0.0
170
     2
340
0
  0
DICTIONARY
  5
6377
102
{ACAD_REACTORS
330
C
102
}
330
C
100
AcDbDictionary
281
     1
  3
DIMASSOC
350
7F318
  3
INDEXCTL
350
AEAA0
  3
PROJECTNAME
350
AA3EE
  3
SORTENTS
350
6378
  0
DICTIONARY
  5
C0B9F
102
{ACAD_REACTORS
330
C
102
}
330
C
100
AcDbDictionary
281
     1
  0
XRECORD
  5
C0BC7
102
{ACAD_REACTORS
330
C
102
}
330
C
100
AcDbXrecord
280
     1
  1
DWGPROPS COOKIE
  2

  3

  4

  6

  7

  8
SPAX
  9

300
=
301
=
302
=
303
=
304
=
305
=
306
=
307
=
308
=
309
=
 40
0.0
 41
2449505.547222222
 42
2456822.099048403
  1

 90
        0
  0
DICTIONARY
  5
ABE2B
102
{ACAD_REACTORS
330
ABE2A
102
}
330
ABE2A
100
AcDbDictionary
281
     1
  0
XRECORD
  5
AEA35
102
{ACAD_REACTORS
330
AEA34
102
}
330
AEA34
100
AcDbXrecord
280
     1
290
     1
  0
XRECORD
  5
AEA3D
102
{ACAD_REACTORS
330
AEA3C
102
}
330
AEA3C
100
AcDbXrecord
280
     1
290
     1
  0
XRECORD
  5
AEA41
102
{ACAD_REACTORS
330
AEA40
102
}
330
AEA40
100
AcDbXrecord
280
     1
290
     1
  0
XRECORD
  5
AEA45
102
{ACAD_REACTORS
330
AEA44
102
}
330
AEA44
100
AcDbXrecord
280
     1
290
     1
  0
SORTENTSTABLE
  5
B753B
102
{ACAD_REACTORS
330
B753A
102
}
330
B753A
100
AcDbSortentsTable
330
18
331
0
  5
AFCF7
331
AD040
  5
AD040
331
0
  5
B0297
331
B028A
  5
B0298
331
B028B
  5
B0299
331
B028C
  5
B029A
331
B028D
  5
B029B
331
B028E
  5
B029C
331
B028F
  5
B029D
331
B0290
  5
B029E
331
B02A4
  5
B02B2
331
B02A5
  5
B02BC
331
B02A6
  5
B02BD
331
B02A7
  5
B02BE
331
B02A8
  5
B02BF
331
B02A9
  5
B02C0
331
B02AA
  5
B02C1
331
B02AB
  5
B02C2
331
B02AC
  5
B02C3
331
B02AD
  5
B02C4
331
B02AE
  5
B02C5
331
B02AF
  5
B02C6
331
B02B0
  5
B02C7
331
B02B1
  5
B02C8
331
B02B2
  5
B02C9
331
B02B3
  5
B02CA
331
B02B4
  5
B02CB
331
B02B5
  5
B02CC
331
B02B6
  5
B02CD
331
B02B7
  5
B02CE
331
B02B8
  5
B02CF
331
B02B9
  5
B02D2
331
B02BA
  5
B02D3
331
B02BB
  5
B02D5
331
B02BC
  5
B02E0
331
B02BD
  5
B02E9
331
B02BE
  5
B02EA
331
B02BF
  5
B02EB
331
B02C0
  5
B02EC
331
B02C1
  5
B02ED
331
B02C4
  5
B02F4
331
B02C5
  5
B02F5
331
B02C7
  5
B02F6
331
B02D2
  5
B02F7
331
B02DB
  5
B02F8
331
B02DC
  5
B02F9
331
B02DD
  5
B02FA
331
B02DE
  5
B02FB
331
B02DF
  5
B02FC
331
B02E0
  5
B02FD
331
B02E1
  5
B02FE
331
B02E2
  5
B0300
331
B02E3
  5
B0301
331
B02E4
  5
B0302
331
B0472
  5
B65CF
331
C0A45
  5
C0B2B
331
C0A46
  5
C0B2D
331
C0B23
  5
B02B4
331
C0B25
  5
B02B6
331
C0B27
  5
B02B8
331
C0B29
  5
B02BA
331
C0B2B
  5
C0B37
331
C0B2D
  5
C0B39
331
C0B2F
  5
C0B3B
331
C0B31
  5
C0B3D
331
C0B33
  5
C0B3F
331
C0B35
  5
C0B41
331
C0B37
  5
C0B43
331
C0B39
  5
C0B45
331
C0B3B
  5
C0B47
331
C0B3D
  5
C0B49
331
C0B3F
  5
C0B4B
331
C0B41
  5
C0B4D
331
C0B43
  5
C0B4F
331
C0B45
  5
C0B51
331
C0B47
  5
C0B53
331
C0B49
  5
C0B55
331
C0B4B
  5
C0B57
331
C0B4D
  5
C0B59
331
C0B4F
  5
C0B5B
331
C0B51
  5
C0B5D
331
C0B53
  5
C0B5F
331
C0B55
  5
C0B61
331
C0B57
  5
C0B63
331
C0B59
  5
C0B65
331
C0B5B
  5
C0B67
331
C0B5D
  5
C0B69
331
C0B5F
  5
C0B6B
331
C0B61
  5
C0B6C
331
C0B63
  5
C0B6D
331
C0B65
  5
C0B6E
331
C0B67
  5
C0B6F
331
C0B69
  5
C0B70
331
C0B6B
  5
B02EE
331
C0B6C
  5
B02EF
331
C0B6D
  5
B02F0
331
C0B6E
  5
B02F1
331
C0B6F
  5
B02F2
331
C0B70
  5
B02F3
  0
XRECORD
  5
C0B98
102
{ACAD_REACTORS
330
C0B97
102
}
330
C0B97
100
AcDbXrecord
280
     1
102
VISUALSTYLE
340
0
102
GRIDDISPLAY
 70
     0
102
GRIDMAJOR
 70
     5
102
DEFAULTLIGHTING
280
     1
102
DEFAULTLIGHTINGTYPE
 70
     1
102
BRIGHTNESS
141
0.0
102
CONTRAST
142
0.0
  0
XRECORD
  5
C0B9A
102
{ACAD_REACTORS
330
C0B99
102
}
330
C0B99
100
AcDbXrecord
280
     1
102
VISUALSTYLE
340
0
102
GRIDDISPLAY
 70
     0
102
GRIDMAJOR
 70
     5
102
DEFAULTLIGHTING
280
     1
102
DEFAULTLIGHTINGTYPE
 70
     1
102
BRIGHTNESS
141
0.0
102
CONTRAST
142
0.0
  0
LAYOUT
  5
40CD
102
{ACAD_REACTORS
330
40CB
102
}
330
40CB
100
AcDbPlotSettings
  1

  2
DocuWide2055
  4
A4
  6

 40
3.174999952316284
 41
3.174999952316284
 42
3.175003051757812
 43
3.17498779296875
 44
210.0156707763672
 45
297.0106506347656
 46
14.33522463869448
 47
9.833993875407032
 48
799.9999993806778
 49
0.0000011384854588
140
1674.976091855198
141
1354.963376831818
142
1.0
143
5.0
 70
  3748
 72
     1
 73
     0
 74
     4
  7
spax form.ctb
 75
    16
147
1.0
148
-799.9999993806778
149
-0.0000011384854588
100
AcDbLayout
  1
Model
 70
     1
 71
     0
 10
0.0
 20
0.0
 11
12.0
 21
9.0
 12
0.0
 22
0.0
 32
0.0
 14
1826.132858419566
 24
839.085842617548
 34
0.0
 15
1942.074163136869
 25
947.2685657244742
 35
0.0
146
0.0
 13
0.0
 23
0.0
 33
0.0
 16
1.0
 26
0.0
 36
0.0
 17
0.0
 27
1.0
 37
0.0
 76
     0
330
18
331
AFCE8
1001
ACAD_PSEXT
1000
DocuWide2055
1000
FX DocuWide 2055
1000
192.168.6.115:plt00t
1000

1070
     0
  0
LAYOUT
  5
40CE
102
{ACAD_REACTORS
330
40CB
102
}
330
40CB
100
AcDbPlotSettings
  1

  2
なし
  4

  6

 40
0.0
 41
0.0
 42
0.0
 43
0.0
 44
0.0
 45
0.0
 46
0.0
 47
0.0
 48
0.0
 49
0.0
140
0.0
141
0.0
142
1.0
143
1.0
 70
   688
 72
     0
 73
     1
 74
     5
  7
monochrome-hirai.ctb
 75
    16
147
1.0
148
0.0
149
0.0
100
AcDbLayout
  1
ﾚｲｱｳﾄ1
 70
     0
 71
     1
 10
0.0
 20
0.0
 11
0.0
 21
0.0
 12
0.0
 22
0.0
 32
0.0
 14
0.0
 24
0.0
 34
0.0
 15
0.0
 25
0.0
 35
0.0
146
0.0
 13
0.0
 23
0.0
 33
0.0
 16
1.0
 26
0.0
 36
0.0
 17
0.0
 27
1.0
 37
0.0
 76
     0
330
15
331
3DEAB
  0
MLINESTYLE
  5
1B
102
{ACAD_REACTORS
330
E
102
}
330
E
100
AcDbMlineStyle
  2
STANDARD
 70
     0
  3

 62
     0
 51
90.0
 52
90.0
 71
     2
 49
0.5
 62
   256
  6
BYLAYER
 49
-0.5
 62
   256
  6
BYLAYER
  0
ACDBPLACEHOLDER
  5
40CA
102
{ACAD_REACTORS
330
40C9
102
}
330
40C9
  0
SCALE
  5
AE199
102
{ACAD_REACTORS
330
AE198
102
}
330
AE198
100
AcDbScale
 70
     0
300
1:1
140
1.0
141
1.0
290
     1
1001
ACAD
1000
AcRTDxfName
1000
SCALE
1000
AcRTDxfName
1000
SCALE
  0
SCALE
  5
AE19A
102
{ACAD_REACTORS
330
AE198
102
}
330
AE198
100
AcDbScale
 70
     0
300
1:2
140
1.0
141
2.0
290
     0
1001
ACAD
1000
AcRTDxfName
1000
SCALE
1000
AcRTDxfName
1000
SCALE
  0
SCALE
  5
AE19B
102
{ACAD_REACTORS
330
AE198
102
}
330
AE198
100
AcDbScale
 70
     0
300
1:4
140
1.0
141
4.0
290
     0
1001
ACAD
1000
AcRTDxfName
1000
SCALE
1000
AcRTDxfName
1000
SCALE
  0
SCALE
  5
AE19C
102
{ACAD_REACTORS
330
AE198
102
}
330
AE198
100
AcDbScale
 70
     0
300
1:5
140
1.0
141
5.0
290
     0
1001
ACAD
1000
AcRTDxfName
1000
SCALE
1000
AcRTDxfName
1000
SCALE
  0
SCALE
  5
AE19D
102
{ACAD_REACTORS
330
AE198
102
}
330
AE198
100
AcDbScale
 70
     0
300
1:8
140
1.0
141
8.0
290
     0
1001
ACAD
1000
AcRTDxfName
1000
SCALE
1000
AcRTDxfName
1000
SCALE
  0
SCALE
  5
AE19E
102
{ACAD_REACTORS
330
AE198
102
}
330
AE198
100
AcDbScale
 70
     0
300
1:10
140
1.0
141
10.0
290
     0
1001
ACAD
1000
AcRTDxfName
1000
SCALE
1000
AcRTDxfName
1000
SCALE
  0
SCALE
  5
AE19F
102
{ACAD_REACTORS
330
AE198
102
}
330
AE198
100
AcDbScale
 70
     0
300
1:16
140
1.0
141
16.0
290
     0
1001
ACAD
1000
AcRTDxfName
1000
SCALE
1000
AcRTDxfName
1000
SCALE
  0
SCALE
  5
AE1A0
102
{ACAD_REACTORS
330
AE198
102
}
330
AE198
100
AcDbScale
 70
     0
300
1:20
140
1.0
141
20.0
290
     0
1001
ACAD
1000
AcRTDxfName
1000
SCALE
1000
AcRTDxfName
1000
SCALE
  0
SCALE
  5
AE1A1
102
{ACAD_REACTORS
330
AE198
102
}
330
AE198
100
AcDbScale
 70
     0
300
1:30
140
1.0
141
30.0
290
     0
1001
ACAD
1000
AcRTDxfName
1000
SCALE
1000
AcRTDxfName
1000
SCALE
  0
SCALE
  5
AE1A2
102
{ACAD_REACTORS
330
AE198
102
}
330
AE198
100
AcDbScale
 70
     0
300
1:40
140
1.0
141
40.0
290
     0
1001
ACAD
1000
AcRTDxfName
1000
SCALE
1000
AcRTDxfName
1000
SCALE
  0
SCALE
  5
AE1A3
102
{ACAD_REACTORS
330
AE198
102
}
330
AE198
100
AcDbScale
 70
     0
300
1:50
140
1.0
141
50.0
290
     0
1001
ACAD
1000
AcRTDxfName
1000
SCALE
1000
AcRTDxfName
1000
SCALE
  0
SCALE
  5
AE1A4
102
{ACAD_REACTORS
330
AE198
102
}
330
AE198
100
AcDbScale
 70
     0
300
1:100
140
1.0
141
100.0
290
     0
1001
ACAD
1000
AcRTDxfName
1000
SCALE
1000
AcRTDxfName
1000
SCALE
  0
SCALE
  5
AE1A5
102
{ACAD_REACTORS
330
AE198
102
}
330
AE198
100
AcDbScale
 70
     0
300
2:1
140
2.0
141
1.0
290
     0
1001
ACAD
1000
AcRTDxfName
1000
SCALE
1000
AcRTDxfName
1000
SCALE
  0
SCALE
  5
AE1A6
102
{ACAD_REACTORS
330
AE198
102
}
330
AE198
100
AcDbScale
 70
     0
300
4:1
140
4.0
141
1.0
290
     0
1001
ACAD
1000
AcRTDxfName
1000
SCALE
1000
AcRTDxfName
1000
SCALE
  0
SCALE
  5
AE1A7
102
{ACAD_REACTORS
330
AE198
102
}
330
AE198
100
AcDbScale
 70
     0
300
8:1
140
8.0
141
1.0
290
     0
1001
ACAD
1000
AcRTDxfName
1000
SCALE
1000
AcRTDxfName
1000
SCALE
  0
SCALE
  5
AE1A8
102
{ACAD_REACTORS
330
AE198
102
}
330
AE198
100
AcDbScale
 70
     0
300
10:1
140
10.0
141
1.0
290
     0
1001
ACAD
1000
AcRTDxfName
1000
SCALE
1000
AcRTDxfName
1000
SCALE
  0
SCALE
  5
AE1A9
102
{ACAD_REACTORS
330
AE198
102
}
330
AE198
100
AcDbScale
 70
     0
300
100:1
140
100.0
141
1.0
290
     0
1001
ACAD
1000
AcRTDxfName
1000
SCALE
1000
AcRTDxfName
1000
SCALE
  0
SCALE
  5
AE1AA
102
{ACAD_REACTORS
330
AE198
102
}
330
AE198
100
AcDbScale
 70
     0
300
1/128" = 1'-0"
140
0.0078125
141
12.0
290
     0
1001
ACAD
1000
AcRTDxfName
1000
SCALE
1000
AcRTDxfName
1000
SCALE
  0
SCALE
  5
AE1AB
102
{ACAD_REACTORS
330
AE198
102
}
330
AE198
100
AcDbScale
 70
     0
300
1/64" = 1'-0"
140
0.015625
141
12.0
290
     0
1001
ACAD
1000
AcRTDxfName
1000
SCALE
1000
AcRTDxfName
1000
SCALE
  0
SCALE
  5
AE1AC
102
{ACAD_REACTORS
330
AE198
102
}
330
AE198
100
AcDbScale
 70
     0
300
1/32" = 1'-0"
140
0.03125
141
12.0
290
     0
1001
ACAD
1000
AcRTDxfName
1000
SCALE
1000
AcRTDxfName
1000
SCALE
  0
SCALE
  5
AE1AD
102
{ACAD_REACTORS
330
AE198
102
}
330
AE198
100
AcDbScale
 70
     0
300
1/16" = 1'-0"
140
0.0625
141
12.0
290
     0
1001
ACAD
1000
AcRTDxfName
1000
SCALE
1000
AcRTDxfName
1000
SCALE
  0
SCALE
  5
AE1AE
102
{ACAD_REACTORS
330
AE198
102
}
330
AE198
100
AcDbScale
 70
     0
300
3/32" = 1'-0"
140
0.09375
141
12.0
290
     0
1001
ACAD
1000
AcRTDxfName
1000
SCALE
1000
AcRTDxfName
1000
SCALE
  0
SCALE
  5
AE1AF
102
{ACAD_REACTORS
330
AE198
102
}
330
AE198
100
AcDbScale
 70
     0
300
1/8" = 1'-0"
140
0.125
141
12.0
290
     0
1001
ACAD
1000
AcRTDxfName
1000
SCALE
1000
AcRTDxfName
1000
SCALE
  0
SCALE
  5
AE1B0
102
{ACAD_REACTORS
330
AE198
102
}
330
AE198
100
AcDbScale
 70
     0
300
3/16" = 1'-0"
140
0.1875
141
12.0
290
     0
1001
ACAD
1000
AcRTDxfName
1000
SCALE
1000
AcRTDxfName
1000
SCALE
  0
SCALE
  5
AE1B1
102
{ACAD_REACTORS
330
AE198
102
}
330
AE198
100
AcDbScale
 70
     0
300
1/4" = 1'-0"
140
0.25
141
12.0
290
     0
1001
ACAD
1000
AcRTDxfName
1000
SCALE
1000
AcRTDxfName
1000
SCALE
  0
SCALE
  5
AE1B2
102
{ACAD_REACTORS
330
AE198
102
}
330
AE198
100
AcDbScale
 70
     0
300
3/8" = 1'-0"
140
0.375
141
12.0
290
     0
1001
ACAD
1000
AcRTDxfName
1000
SCALE
1000
AcRTDxfName
1000
SCALE
  0
SCALE
  5
AE1B3
102
{ACAD_REACTORS
330
AE198
102
}
330
AE198
100
AcDbScale
 70
     0
300
1/2" = 1'-0"
140
0.5
141
12.0
290
     0
1001
ACAD
1000
AcRTDxfName
1000
SCALE
1000
AcRTDxfName
1000
SCALE
  0
SCALE
  5
AE1B4
102
{ACAD_REACTORS
330
AE198
102
}
330
AE198
100
AcDbScale
 70
     0
300
3/4" = 1'-0"
140
0.75
141
12.0
290
     0
1001
ACAD
1000
AcRTDxfName
1000
SCALE
1000
AcRTDxfName
1000
SCALE
  0
SCALE
  5
AE1B5
102
{ACAD_REACTORS
330
AE198
102
}
330
AE198
100
AcDbScale
 70
     0
300
1" = 1'-0"
140
1.0
141
12.0
290
     0
1001
ACAD
1000
AcRTDxfName
1000
SCALE
1000
AcRTDxfName
1000
SCALE
  0
SCALE
  5
AE1B6
102
{ACAD_REACTORS
330
AE198
102
}
330
AE198
100
AcDbScale
 70
     0
300
1-1/2" = 1'-0"
140
1.5
141
12.0
290
     0
1001
ACAD
1000
AcRTDxfName
1000
SCALE
1000
AcRTDxfName
1000
SCALE
  0
SCALE
  5
AE1B7
102
{ACAD_REACTORS
330
AE198
102
}
330
AE198
100
AcDbScale
 70
     0
300
3" = 1'-0"
140
3.0
141
12.0
290
     0
1001
ACAD
1000
AcRTDxfName
1000
SCALE
1000
AcRTDxfName
1000
SCALE
  0
SCALE
  5
AE1B8
102
{ACAD_REACTORS
330
AE198
102
}
330
AE198
100
AcDbScale
 70
     0
300
6" = 1'-0"
140
6.0
141
12.0
290
     0
1001
ACAD
1000
AcRTDxfName
1000
SCALE
1000
AcRTDxfName
1000
SCALE
  0
SCALE
  5
AE1B9
102
{ACAD_REACTORS
330
AE198
102
}
330
AE198
100
AcDbScale
 70
     0
300
1'-0" = 1'-0"
140
12.0
141
12.0
290
     0
1001
ACAD
1000
AcRTDxfName
1000
SCALE
1000
AcRTDxfName
1000
SCALE
  0
DICTIONARYVAR
  5
7F318
102
{ACAD_REACTORS
330
6377
102
}
330
6377
100
DictionaryVariables
280
     0
  1
1
  0
DICTIONARYVAR
  5
AEAA0
102
{ACAD_REACTORS
330
6377
102
}
330
6377
100
DictionaryVariables
280
     0
  1
0
  0
DICTIONARYVAR
  5
AA3EE
102
{ACAD_REACTORS
330
6377
102
}
330
6377
100
DictionaryVariables
280
     0
  1

  0
DICTIONARYVAR
  5
6378
102
{ACAD_REACTORS
330
6377
102
}
330
6377
100
DictionaryVariables
280
     0
  1
96
  0
ENDSEC
  0
EOF
