  0
SECTION
  2
HEADER
  9
$ACADVER
  1
AC1015
  9
$ACADMAINTVER
 70
     6
  9
$DWGCODEPAGE
  3
ANSI_932
  9
$INSBASE
 10
0.0
 20
0.0
 30
0.0
  9
$EXTMIN
 10
17037.27388240095
 20
3766.736764083336
 30
0.0
  9
$EXTMAX
 10
17305.28645660074
 20
4043.292264002559
 30
0.0
  9
$LIMMIN
 10
0.0
 20
0.0
  9
$LIMMAX
 10
594.0
 20
420.0
  9
$ORTHOMODE
 70
     1
  9
$REGENMODE
 70
     1
  9
$FILLMODE
 70
     1
  9
$QTEXTMODE
 70
     0
  9
$MIRRTEXT
 70
     1
  9
$LTSCALE
 40
3.0
  9
$ATTMODE
 70
     0
  9
$TEXTSIZE
 40
2.5
  9
$TRACEWID
 40
1.0
  9
$TEXTSTYLE
  7
STANDARD
  9
$CLAYER
  8
0
  9
$CELTYPE
  6
BYLAYER
  9
$CECOLOR
 62
   256
  9
$CELTSCALE
 40
1.0
  9
$DISPSILH
 70
     0
  9
$DIMSCALE
 40
1.0
  9
$DIMASZ
 40
15.0
  9
$DIMEXO
 40
15.0
  9
$DIMDLI
 40
3.8
  9
$DIMRND
 40
0.0
  9
$DIMDLE
 40
0.0
  9
$DIMEXE
 40
1.0
  9
$DIMTP
 40
0.0
  9
$DIMTM
 40
0.0
  9
$DIMTXT
 40
20.0
  9
$DIMCEN
 40
0.0
  9
$DIMTSZ
 40
0.0
  9
$DIMTOL
 70
     0
  9
$DIMLIM
 70
     0
  9
$DIMTIH
 70
     0
  9
$DIMTOH
 70
     0
  9
$DIMSE1
 70
     0
  9
$DIMSE2
 70
     0
  9
$DIMTAD
 70
     1
  9
$DIMZIN
 70
     8
  9
$DIMBLK
  1

  9
$DIMASO
 70
     1
  9
$DIMSHO
 70
     0
  9
$DIMPOST
  1

  9
$DIMAPOST
  1

  9
$DIMALT
 70
     0
  9
$DIMALTD
 70
     0
  9
$DIMALTF
 40
25.4
  9
$DIMLFAC
 40
1.0
  9
$DIMTOFL
 70
     1
  9
$DIMTVP
 40
0.0
  9
$DIMTIX
 70
     0
  9
$DIMSOXD
 70
     0
  9
$DIMSAH
 70
     1
  9
$DIMBLK1
  1
OPEN
  9
$DIMBLK2
  1
OPEN
  9
$DIMSTYLE
  2
STANDARD-10
  9
$DIMCLRD
 70
     8
  9
$DIMCLRE
 70
     8
  9
$DIMCLRT
 70
   256
  9
$DIMTFAC
 40
1.0
  9
$DIMGAP
 40
0.0
  9
$DIMJUST
 70
     0
  9
$DIMSD1
 70
     0
  9
$DIMSD2
 70
     0
  9
$DIMTOLJ
 70
     1
  9
$DIMTZIN
 70
     0
  9
$DIMALTZ
 70
     0
  9
$DIMALTTZ
 70
     0
  9
$DIMUPT
 70
     0
  9
$DIMDEC
 70
     2
  9
$DIMTDEC
 70
     2
  9
$DIMALTU
 70
     2
  9
$DIMALTTD
 70
     0
  9
$DIMTXSTY
  7
STANDARD
  9
$DIMAUNIT
 70
     0
  9
$DIMADEC
 70
     2
  9
$DIMALTRND
 40
0.0
  9
$DIMAZIN
 70
     2
  9
$DIMDSEP
 70
    46
  9
$DIMATFIT
 70
     2
  9
$DIMFRAC
 70
     0
  9
$DIMLDRBLK
  1
OPEN
  9
$DIMLUNIT
 70
     2
  9
$DIMLWD
 70
    -2
  9
$DIMLWE
 70
    -2
  9
$DIMTMOVE
 70
     0
  9
$LUNITS
 70
     2
  9
$LUPREC
 70
     1
  9
$SKETCHINC
 40
0.1
  9
$FILLETRAD
 40
0.8
  9
$AUNITS
 70
     0
  9
$AUPREC
 70
     1
  9
$MENU
  1
FM
  9
$ELEVATION
 40
0.0
  9
$PELEVATION
 40
0.0
  9
$THICKNESS
 40
0.0
  9
$LIMCHECK
 70
     0
  9
$CHAMFERA
 40
0.0
  9
$CHAMFERB
 40
0.0
  9
$CHAMFERC
 40
0.0
  9
$CHAMFERD
 40
0.0
  9
$SKPOLY
 70
     0
  9
$TDCREATE
 40
2448499.608101852
  9
$TDUCREATE
 40
2448499.233101852
  9
$TDUPDATE
 40
2456822.483266261
  9
$TDUUPDATE
 40
2456822.108266261
  9
$TDINDWG
 40
22.4824559722
  9
$TDUSRTIMER
 40
2456822.108137743
  9
$USRTIMER
 70
     1
  9
$ANGBASE
 50
0.0
  9
$ANGDIR
 70
     0
  9
$PDMODE
 70
     3
  9
$PDSIZE
 40
0.0
  9
$PLINEWID
 40
0.0
  9
$SPLFRAME
 70
     0
  9
$SPLINETYPE
 70
     6
  9
$SPLINESEGS
 70
     8
  9
$HANDSEED
  5
89D6F
  9
$SURFTAB1
 70
     6
  9
$SURFTAB2
 70
     6
  9
$SURFTYPE
 70
     6
  9
$SURFU
 70
     6
  9
$SURFV
 70
     6
  9
$UCSBASE
  2

  9
$UCSNAME
  2

  9
$UCSORG
 10
0.0
 20
0.0
 30
0.0
  9
$UCSXDIR
 10
1.0
 20
0.0
 30
0.0
  9
$UCSYDIR
 10
0.0
 20
1.0
 30
0.0
  9
$UCSORTHOREF
  2

  9
$UCSORTHOVIEW
 70
     0
  9
$UCSORGTOP
 10
0.0
 20
0.0
 30
0.0
  9
$UCSORGBOTTOM
 10
0.0
 20
0.0
 30
0.0
  9
$UCSORGLEFT
 10
0.0
 20
0.0
 30
0.0
  9
$UCSORGRIGHT
 10
0.0
 20
0.0
 30
0.0
  9
$UCSORGFRONT
 10
0.0
 20
0.0
 30
0.0
  9
$UCSORGBACK
 10
0.0
 20
0.0
 30
0.0
  9
$PUCSBASE
  2

  9
$PUCSNAME
  2

  9
$PUCSORG
 10
0.0
 20
0.0
 30
0.0
  9
$PUCSXDIR
 10
1.0
 20
0.0
 30
0.0
  9
$PUCSYDIR
 10
0.0
 20
1.0
 30
0.0
  9
$PUCSORTHOREF
  2

  9
$PUCSORTHOVIEW
 70
     0
  9
$PUCSORGTOP
 10
0.0
 20
0.0
 30
0.0
  9
$PUCSORGBOTTOM
 10
0.0
 20
0.0
 30
0.0
  9
$PUCSORGLEFT
 10
0.0
 20
0.0
 30
0.0
  9
$PUCSORGRIGHT
 10
0.0
 20
0.0
 30
0.0
  9
$PUCSORGFRONT
 10
0.0
 20
0.0
 30
0.0
  9
$PUCSORGBACK
 10
0.0
 20
0.0
 30
0.0
  9
$USERI1
 70
     0
  9
$USERI2
 70
     0
  9
$USERI3
 70
     0
  9
$USERI4
 70
     0
  9
$USERI5
 70
     0
  9
$USERR1
 40
0.0
  9
$USERR2
 40
0.0
  9
$USERR3
 40
0.0
  9
$USERR4
 40
0.0
  9
$USERR5
 40
0.0
  9
$WORLDVIEW
 70
     0
  9
$SHADEDGE
 70
     3
  9
$SHADEDIF
 70
    70
  9
$TILEMODE
 70
     1
  9
$MAXACTVP
 70
    16
  9
$PINSBASE
 10
0.0
 20
0.0
 30
0.0
  9
$PLIMCHECK
 70
     0
  9
$PEXTMIN
 10
1.000000000000000E+20
 20
1.000000000000000E+20
 30
1.000000000000000E+20
  9
$PEXTMAX
 10
-1.000000000000000E+20
 20
-1.000000000000000E+20
 30
-1.000000000000000E+20
  9
$PLIMMIN
 10
0.0
 20
0.0
  9
$PLIMMAX
 10
0.0
 20
0.0
  9
$UNITMODE
 70
     0
  9
$VISRETAIN
 70
     0
  9
$PLINEGEN
 70
     0
  9
$PSLTSCALE
 70
     0
  9
$TREEDEPTH
 70
  3020
  9
$CMLSTYLE
  2
STANDARD
  9
$CMLJUST
 70
     0
  9
$CMLSCALE
 40
1.0
  9
$PROXYGRAPHICS
 70
     1
  9
$MEASUREMENT
 70
     0
  9
$CELWEIGHT
370
    -1
  9
$ENDCAPS
280
     0
  9
$JOINSTYLE
280
     0
  9
$LWDISPLAY
290
     0
  9
$INSUNITS
 70
     0
  9
$HYPERLINKBASE
  1

  9
$STYLESHEET
  1
spax form.ctb
  9
$XEDIT
290
     1
  9
$CEPSNTYPE
380
     0
  9
$PSTYLEMODE
290
     1
  9
$FINGERPRINTGUID
  2
{47009D22-CDDF-11D3-A113-00A0C90652EE}
  9
$VERSIONGUID
  2
{F91B4D47-61C9-4DC8-9FA9-F0D2B66DA20B}
  9
$EXTNAMES
290
     1
  9
$PSVPSCALE
 40
0.0
  9
$OLESTARTUP
290
     0
  0
ENDSEC
  0
SECTION
  2
CLASSES
  0
CLASS
  1
LWPOLYLINE
  2
AcDbPolyline
  3
ObjectDBX Classes
 90
        0
280
     0
281
     1
  0
CLASS
  1
ACDBDICTIONARYWDFLT
  2
AcDbDictionaryWithDefault
  3
ObjectDBX Classes
 90
        0
280
     0
281
     0
  0
CLASS
  1
ACDBPLACEHOLDER
  2
AcDbPlaceHolder
  3
ObjectDBX Classes
 90
        0
280
     0
281
     0
  0
CLASS
  1
LAYOUT
  2
AcDbLayout
  3
ObjectDBX Classes
 90
        0
280
     0
281
     0
  0
CLASS
  1
DICTIONARYVAR
  2
AcDbDictionaryVar
  3
ObjectDBX Classes
 90
        0
280
     0
281
     0
  0
CLASS
  1
SORTENTSTABLE
  2
AcDbSortentsTable
  3
ObjectDBX Classes
 90
        0
280
     0
281
     0
  0
CLASS
  1
MATERIAL
  2
AcDbMaterial
  3
ObjectDBX Classes
 90
     1153
280
     0
281
     0
  0
CLASS
  1
VISUALSTYLE
  2
AcDbVisualStyle
  3
ObjectDBX Classes
 90
     4095
280
     0
281
     0
  0
CLASS
  1
TABLESTYLE
  2
AcDbTableStyle
  3
ObjectDBX Classes
 90
     4095
280
     0
281
     0
  0
CLASS
  1
SCALE
  2
AcDbScale
  3
ObjectDBX Classes
 90
     1153
280
     0
281
     0
  0
CLASS
  1
MLEADERSTYLE
  2
AcDbMLeaderStyle
  3
ACDB_MLEADERSTYLE_CLASS
 90
     4095
280
     0
281
     0
  0
CLASS
  1
CELLSTYLEMAP
  2
AcDbCellStyleMap
  3
ObjectDBX Classes
 90
     1152
280
     0
281
     0
  0
CLASS
  1
RASTERVARIABLES
  2
AcDbRasterVariables
  3
ISM
 90
        0
280
     0
281
     0
  0
CLASS
  1
SUN
  2
AcDbSun
  3
SCENEOE
 90
     1153
280
     0
281
     0
  0
ENDSEC
  0
SECTION
  2
TABLES
  0
TABLE
  2
VPORT
  5
8
330
0
100
AcDbSymbolTable
 70
     1
  0
VPORT
  5
87C63
330
8
100
AcDbSymbolTableRecord
100
AcDbViewportTableRecord
  2
*Active
 70
     0
 10
0.0
 20
0.0
 11
1.0
 21
1.0
 12
17171.28016950085
 22
3905.014514042948
 13
0.0
 23
0.0
 14
1.0
 24
1.0
 15
20.0
 25
20.0
 16
0.0
 26
0.0
 36
1.0
 17
0.0
 27
0.0
 37
0.0
 40
282.0866099176072
 41
2.027568922305764
 42
50.0
 43
0.0
 44
0.0
 50
0.0
 51
0.0
 71
    16
 72
   100
 73
     1
 74
     0
 75
     0
 76
     0
 77
     0
 78
     0
281
     0
 65
     1
110
0.0
120
0.0
130
0.0
111
1.0
121
0.0
131
0.0
112
0.0
122
1.0
132
0.0
 79
     0
146
0.0
  0
ENDTAB
  0
TABLE
  2
LTYPE
  5
5
330
0
100
AcDbSymbolTable
 70
     5
  0
LTYPE
  5
12
330
5
100
AcDbSymbolTableRecord
100
AcDbLinetypeTableRecord
  2
BYBLOCK
 70
     0
  3

 72
    65
 73
     0
 40
0.0
  0
LTYPE
  5
13
330
5
100
AcDbSymbolTableRecord
100
AcDbLinetypeTableRecord
  2
BYLAYER
 70
     0
  3

 72
    65
 73
     0
 40
0.0
  0
LTYPE
  5
14
330
5
100
AcDbSymbolTableRecord
100
AcDbLinetypeTableRecord
  2
CONTINUOUS
 70
     0
  3
Solid line
 72
    65
 73
     0
 40
0.0
  0
LTYPE
  5
27
330
5
100
AcDbSymbolTableRecord
100
AcDbLinetypeTableRecord
  2
CENTER
 70
     0
  3
____ _ ____ _ ____ _ ____ _ ____ _ ____ _ ____
 72
    65
 73
     4
 40
2.0
 49
1.25
 74
     0
 49
-0.25
 74
     0
 49
0.25
 74
     0
 49
-0.25
 74
     0
  0
LTYPE
  5
28
330
5
100
AcDbSymbolTableRecord
100
AcDbLinetypeTableRecord
  2
PHANTOM
 70
     0
  3
_____ _ _ _____ _ _ _____ _ _ _____ _ _ ____
 72
    65
 73
     6
 40
2.5
 49
1.25
 74
     0
 49
-0.25
 74
     0
 49
0.25
 74
     0
 49
-0.25
 74
     0
 49
0.25
 74
     0
 49
-0.25
 74
     0
  0
ENDTAB
  0
TABLE
  2
LAYER
  5
2
102
{ACAD_XDICTIONARY
360
ABF
102
}
330
0
100
AcDbSymbolTable
 70
    16
  0
LAYER
  5
F
102
{ACAD_XDICTIONARY
360
8297B
102
}
330
2
100
AcDbSymbolTableRecord
100
AcDbLayerTableRecord
  2
0
 70
     0
 62
     7
  6
CONTINUOUS
370
    -3
390
1EE
  0
LAYER
  5
2F
102
{ACAD_XDICTIONARY
360
8297D
102
}
330
2
100
AcDbSymbolTableRecord
100
AcDbLayerTableRecord
  2
CONT-2
 70
     0
 62
     3
  6
CONTINUOUS
370
    -3
390
1EE
  0
LAYER
  5
36
102
{ACAD_XDICTIONARY
360
82981
102
}
330
2
100
AcDbSymbolTableRecord
100
AcDbLayerTableRecord
  2
C-SUNPO
 70
     0
 62
     7
  6
CONTINUOUS
370
    -3
390
1EE
  0
LAYER
  5
AB4
102
{ACAD_XDICTIONARY
360
82983
102
}
330
2
100
AcDbSymbolTableRecord
100
AcDbLayerTableRecord
  2
実線
 70
     0
 62
     4
  6
CONTINUOUS
370
    -3
390
1EE
  0
LAYER
  5
AB5
102
{ACAD_XDICTIONARY
360
82985
102
}
330
2
100
AcDbSymbolTableRecord
100
AcDbLayerTableRecord
  2
寸法線
 70
     0
 62
     7
  6
CONTINUOUS
370
    -3
390
1EE
  0
LAYER
  5
AB6
102
{ACAD_XDICTIONARY
360
82987
102
}
330
2
100
AcDbSymbolTableRecord
100
AcDbLayerTableRecord
  2
姿図
 70
     0
 62
     8
  6
CONTINUOUS
370
    -3
390
1EE
  0
LAYER
  5
B6A9
102
{ACAD_XDICTIONARY
360
82991
102
}
330
2
100
AcDbSymbolTableRecord
100
AcDbLayerTableRecord
  2
文字
 70
     0
 62
     7
  6
CONTINUOUS
370
    -3
390
1EE
  0
LAYER
  5
16E15
102
{ACAD_XDICTIONARY
360
82993
102
}
330
2
100
AcDbSymbolTableRecord
100
AcDbLayerTableRecord
  2
LAY-201
 70
     0
 62
     7
  6
CONTINUOUS
370
    -3
390
1EE
  0
ENDTAB
  0
TABLE
  2
STYLE
  5
3
330
0
100
AcDbSymbolTable
 70
     1
  0
STYLE
  5
10
330
3
100
AcDbSymbolTableRecord
100
AcDbTextStyleTableRecord
  2
STANDARD
 70
     0
 40
0.0
 41
1.0
 50
0.0
 71
     0
 42
2.5
  3
MONOTXT
  4
BIGFONT
  0
ENDTAB
  0
TABLE
  2
VIEW
  5
6
330
0
100
AcDbSymbolTable
 70
     0
  0
ENDTAB
  0
TABLE
  2
UCS
  5
7
330
0
100
AcDbSymbolTable
 70
     0
  0
ENDTAB
  0
TABLE
  2
APPID
  5
9
330
0
100
AcDbSymbolTable
 70
     7
  0
APPID
  5
11
330
9
100
AcDbSymbolTableRecord
100
AcDbRegAppTableRecord
  2
ACAD
 70
     0
  0
APPID
  5
2E97D
330
9
100
AcDbSymbolTableRecord
100
AcDbRegAppTableRecord
  2
GENIUS_GENODEF_13
 70
     0
  0
APPID
  5
2E97E
330
9
100
AcDbSymbolTableRecord
100
AcDbRegAppTableRecord
  2
GENIUS_GENREC_14
 70
     0
  0
APPID
  5
2E97F
330
9
100
AcDbSymbolTableRecord
100
AcDbRegAppTableRecord
  2
GENIUS_GENOBJ-N-REC_13
 70
     0
  0
APPID
  5
822E0
330
9
100
AcDbSymbolTableRecord
100
AcDbRegAppTableRecord
  2
ACAD_MLEADERVER
 70
     0
  0
APPID
  5
84154
330
9
100
AcDbSymbolTableRecord
100
AcDbRegAppTableRecord
  2
ACAD_EXEMPT_FROM_CAD_STANDARDS
 70
     0
  0
APPID
  5
84D0C
330
9
100
AcDbSymbolTableRecord
100
AcDbRegAppTableRecord
  2
ACAD_PSEXT
 70
     0
  0
ENDTAB
  0
TABLE
  2
DIMSTYLE
  5
A
330
0
100
AcDbSymbolTable
 70
     4
100
AcDbDimStyleTable
  0
DIMSTYLE
105
166
330
A
100
AcDbSymbolTableRecord
100
AcDbDimStyleTableRecord
  2
STANDARD
 70
     0
 40
0.0
 41
0.2
 42
1.5
 43
1.0
 44
1.0
 73
     0
 77
     1
 78
     8
 79
     2
140
2.5
141
0.1
147
0.5
171
     0
172
     1
178
     0
179
     2
271
     3
272
     3
274
     0
284
     8
340
10
341
8F1
342
8F1
  0
DIMSTYLE
105
4CB10
330
A
100
AcDbSymbolTableRecord
100
AcDbDimStyleTableRecord
  2
STANDARD-10
 70
     0
 41
15.0
 42
15.0
 43
3.8
 44
1.0
 73
     0
 74
     0
 77
     1
 78
     8
 79
     2
140
20.0
141
0.0
147
0.0
171
     0
172
     1
173
     1
176
     8
177
     8
271
     2
178
   256
179
     2
271
     2
272
     2
274
     0
289
     2
340
10
341
8F1
343
8F1
344
8F1
  0
DIMSTYLE
105
8597E
330
A
100
AcDbSymbolTableRecord
100
AcDbDimStyleTableRecord
  2
STANDERD
 70
     0
 40
0.0
 41
4.0
 42
1.5
 43
3.75
 44
1.25
 73
     0
 74
     0
 77
     3
 78
     8
140
5.0
141
0.0
147
2.5
171
     0
173
     1
178
     0
288
     1
340
10
341
8F1
343
8F1
344
8F1
  0
ENDTAB
  0
TABLE
  2
BLOCK_RECORD
  5
1
330
0
100
AcDbSymbolTable
 70
   103
  0
BLOCK_RECORD
  5
18
330
1
100
AcDbSymbolTableRecord
100
AcDbBlockTableRecord
  2
*MODEL_SPACE
340
1F1
  0
BLOCK_RECORD
  5
15
330
1
100
AcDbSymbolTableRecord
100
AcDbBlockTableRecord
  2
*PAPER_SPACE
340
1F2
  0
BLOCK_RECORD
  5
1C
330
1
100
AcDbSymbolTableRecord
100
AcDbBlockTableRecord
  2
YA
340
0
102
{BLKREFS
331
42
102
}
  0
BLOCK_RECORD
  5
1D
330
1
100
AcDbSymbolTableRecord
100
AcDbBlockTableRecord
  2
SUN
340
0
  0
BLOCK_RECORD
  5
8F1
330
1
100
AcDbSymbolTableRecord
100
AcDbBlockTableRecord
  2
_OPEN
340
0
102
{BLKREFS
331
7B732
331
7B733
331
7B73B
331
7B73C
331
7BA75
331
7BA76
331
7BA7E
331
7BA7F
331
7BA87
331
7BA88
331
7BA90
331
7BA91
331
7BAA4
331
7BAA5
331
7BB25
331
7CC2C
331
7CC2D
331
80633
331
80634
331
80CD1
331
80CD2
331
8409C
331
8409D
331
840A5
331
840A6
331
840AE
331
840AF
331
840B7
331
840B8
331
840C0
331
840C1
331
840CB
331
840CC
331
840D4
331
840D5
331
840E0
331
840E8
331
840E9
331
840F1
331
840F2
331
840FC
331
840FD
331
84C92
331
84C93
331
84C9B
331
84C9C
331
84CA6
331
84CA7
331
84CB2
331
84CBA
331
84CBB
331
84CC3
331
84CC4
331
84CCC
331
84CCD
331
84CD5
331
84CD6
331
84CDE
331
84CDF
331
84CE9
331
84CEA
331
84CF2
331
84CF3
331
85790
331
85791
331
8579B
331
8579C
331
857A4
331
857A5
331
857AD
331
857AE
331
857B6
331
857B7
331
857BF
331
857C0
331
857C8
331
857C9
331
857D4
331
857DC
331
857DD
331
857E7
331
857E8
331
857F0
331
857F1
331
86F5C
331
86F5D
331
86F65
331
86F66
331
86F6E
331
86F6F
331
86F7A
331
86F82
331
86F83
331
86F8D
331
86F8E
331
86F96
331
86F97
331
86F9F
331
86FA0
331
86FA8
331
86FA9
331
86FB1
331
86FB2
331
86FBA
331
86FBB
331
87B91
331
87B92
331
87B9C
331
87B9D
331
87BA5
331
87BA6
331
87BAE
331
87BAF
331
87BB7
331
87BB8
331
87BC0
331
87BC1
331
87BC9
331
87BCA
331
87BD2
331
87BD3
331
87BDE
331
87BE8
331
87BE9
331
87BF1
331
87BF2
331
89182
331
89183
331
8918B
331
8918C
331
89194
331
89195
331
8919D
331
8919E
331
891A6
331
891A7
331
891B1
331
891B2
331
891BA
331
891BB
331
891C6
331
891CE
331
891D7
331
891D8
331
891E2
331
891E3
331
89CB9
331
89CC5
331
89CCD
331
89CCE
331
89CD8
331
89CD9
331
89CE1
331
89CE2
331
89CEA
331
89CEB
331
89CF3
331
89CF4
331
89CFC
331
89CFD
331
89D05
331
89D06
331
89D10
331
89D11
331
89D19
331
89D1A
102
}
  0
ENDTAB
  0
ENDSEC
  0
SECTION
  2
BLOCKS
  0
BLOCK
  5
3B
330
18
100
AcDbEntity
  8
0
100
AcDbBlockBegin
  2
*MODEL_SPACE
 70
     0
 10
0.0
 20
0.0
 30
0.0
  3
*MODEL_SPACE
  1
*MODEL_SPACE
  0
ENDBLK
  5
3C
330
18
100
AcDbEntity
  8
0
100
AcDbBlockEnd
  0
BLOCK
  5
39
330
15
100
AcDbEntity
 67
     1
  8
0
100
AcDbBlockBegin
  2
*PAPER_SPACE
 70
     0
 10
0.0
 20
0.0
 30
0.0
  3
*PAPER_SPACE
  1
*PAPER_SPACE
  0
ENDBLK
  5
3A
330
15
100
AcDbEntity
 67
     1
  8
0
100
AcDbBlockEnd
  0
BLOCK
  5
3D
330
1C
100
AcDbEntity
  8
0
100
AcDbBlockBegin
  2
YA
 70
     0
 10
0.0
 20
0.0
 30
0.0
  3
YA
  1
YA
  0
LINE
  5
3E
330
1C
100
AcDbEntity
  8
C-SUNPO
100
AcDbLine
 10
0.0
 20
0.0
 30
0.0
 11
-10.92357602975926
 21
2.926963375633989
 31
0.0
  0
LINE
  5
3F
330
1C
100
AcDbEntity
  8
C-SUNPO
100
AcDbLine
 10
0.0
 20
0.0
 30
0.0
 11
-10.92357602975926
 21
-2.926963375633989
 31
0.0
  0
ENDBLK
  5
40
330
1C
100
AcDbEntity
  8
0
100
AcDbBlockEnd
  0
BLOCK
  5
41
330
1D
100
AcDbEntity
  8
0
100
AcDbBlockBegin
  2
SUN
 70
     0
 10
0.0
 20
0.0
 30
0.0
  3
SUN
  1
SUN
  0
INSERT
  5
42
330
1D
100
AcDbEntity
  8
CONT-2
100
AcDbBlockReference
  2
YA
 10
0.0
 20
0.0
 30
0.0
 41
0.4753510464194477
 42
-0.4753510464194477
 43
0.4753510464194477
  0
ENDBLK
  5
43
330
1D
100
AcDbEntity
  8
0
100
AcDbBlockEnd
  0
BLOCK
  5
8F2
330
8F1
100
AcDbEntity
  8
0
100
AcDbBlockBegin
  2
_OPEN
 70
     0
 10
0.0
 20
0.0
 30
0.0
  3
_OPEN
  1
_OPEN
  0
LINE
  5
8F3
330
8F1
100
AcDbEntity
  8
0
  6
ByBlock
 62
     0
100
AcDbLine
 10
-1.0
 20
0.1666666666666667
 30
0.0
 11
0.0
 21
0.0
 31
0.0
  0
LINE
  5
8F4
330
8F1
100
AcDbEntity
  8
0
  6
ByBlock
 62
     0
100
AcDbLine
 10
0.0
 20
0.0
 30
0.0
 11
-1.0
 21
-0.1666666666666667
 31
0.0
  0
LINE
  5
8F5
330
8F1
100
AcDbEntity
  8
0
  6
ByBlock
 62
     0
100
AcDbLine
 10
0.0
 20
0.0
 30
0.0
 11
-1.0
 21
0.0
 31
0.0
  0
ENDBLK
  5
8F6
330
8F1
100
AcDbEntity
  8
0
100
AcDbBlockEnd
  0
ENDSEC
  0
SECTION
  2
ENTITIES
  0
TEXT
  5
324F3
330
18
100
AcDbEntity
  8
C-SUNPO
100
AcDbText
 10
18094.46799172923
 20
6085.275165314036
 30
0.0
 40
5.0
  1

100
AcDbText
  0
LINE
  5
89268
330
18
100
AcDbEntity
  8
実線
 62
     8
 48
0.5
100
AcDbLine
 10
17261.33545046836
 20
3921.649662233701
 30
0.0
 11
17259.56845046835
 21
3922.472386367303
 31
0.0
  0
LINE
  5
89269
330
18
100
AcDbEntity
  8
実線
 62
     8
 48
2.0
100
AcDbLine
 10
17259.56845046835
 20
3922.472386367303
 30
0.0
 11
17259.56845046835
 21
3919.116938100113
 31
0.0
  0
LINE
  5
8926A
330
18
100
AcDbEntity
  8
実線
 62
     8
 48
0.5
100
AcDbLine
 10
17261.33545046836
 20
3919.939662233701
 30
0.0
 11
17259.56845046835
 21
3919.116938100113
 31
0.0
  0
SPLINE
  5
8926B
330
18
100
AcDbEntity
  8
寸法線
 62
     8
100
AcDbSpline
210
0.0
220
0.0
230
1.0
 70
    11
 71
     3
 72
    52
 73
    48
 74
     0
 42
0.000000001
 43
0.0000000001
 40
0.0
 40
0.0
 40
0.0
 40
0.0
 40
0.1660052751248561
 40
0.1660052751248561
 40
0.3320105502497122
 40
0.3320105502497122
 40
0.643099107781141
 40
0.643099107781141
 40
0.9541876653125698
 40
0.9541876653125698
 40
1.265276222843999
 40
1.265276222843999
 40
1.576364780375427
 40
1.576364780375427
 40
1.887453337906856
 40
1.887453337906856
 40
2.198541895438285
 40
2.198541895438285
 40
2.509630452969714
 40
2.509630452969714
 40
2.820719010501143
 40
2.820719010501143
 40
3.016413530868025
 40
3.016413530868025
 40
3.212108051234908
 40
3.212108051234908
 40
3.40780257160179
 40
3.40780257160179
 40
3.603497091968673
 40
3.603497091968673
 40
3.924117081040342
 40
3.924117081040342
 40
4.244737070112012
 40
4.244737070112012
 40
4.565357059183682
 40
4.565357059183682
 40
4.885977048255351
 40
4.885977048255351
 40
5.206597037327021
 40
5.206597037327021
 40
5.527217026398691
 40
5.527217026398691
 40
5.84783701547036
 40
5.84783701547036
 40
6.081404607723511
 40
6.081404607723511
 40
6.283185307179586
 40
6.283185307179586
 40
6.283185307179586
 40
6.283185307179586
 10
17137.83010942013
 20
3900.276667473
 30
0.0
 10
17137.83749357794
 20
3899.692769875901
 30
0.0
 10
17137.97423571837
 20
3899.111769748448
 30
0.0
 10
17138.48442820702
 20
3897.9954019501
 30
0.0
 10
17138.85641313242
 20
3897.459318507518
 30
0.0
 10
17140.22368367311
 20
3895.993095420004
 30
0.0
 10
17141.48095983876
 20
3895.124565036826
 30
0.0
 10
17144.60671134937
 20
3893.592081286688
 30
0.0
 10
17146.47656927399
 20
3892.929608212777
 30
0.0
 10
17150.66374133406
 20
3891.860693441175
 30
0.0
 10
17152.98037144426
 20
3891.454872343519
 30
0.0
 10
17157.84590586122
 20
3890.935239553768
 30
0.0
 10
17160.39398911143
 20
3890.821603130606
 30
0.0
 10
17165.48281083291
 20
3890.896706263065
 30
0.0
 10
17168.02271190435
 20
3891.085432302417
 30
0.0
 10
17172.85630837245
 20
3891.748256158808
 30
0.0
 10
17175.1491890748
 20
3892.222149032886
 30
0.0
 10
17179.27558409723
 20
3893.414037242531
 30
0.0
 10
17181.10844550659
 20
3894.131367191841
 30
0.0
 10
17184.15029003045
 20
3895.756101739821
 30
0.0
 10
17185.36089885781
 20
3896.662099792611
 30
0.0
 10
17186.73031121598
 20
3898.265072308087
 30
0.0
 10
17187.11325053796
 20
3898.916994086808
 30
0.0
 10
17187.54242002203
 20
3900.267244586277
 30
0.0
 10
17187.58471638212
 20
3900.965063904981
 30
0.0
 10
17187.31304031052
 20
3902.327740912071
 30
0.0
 10
17187.00246578351
 20
3902.989331129475
 30
0.0
 10
17186.0797188644
 20
3904.23897810599
 30
0.0
 10
17185.46785727973
 20
3904.82938539243
 30
0.0
 10
17183.49884852927
 20
3906.290347349057
 30
0.0
 10
17181.91207167774
 20
3907.100198412986
 30
0.0
 10
17178.1580580905
 20
3908.477911116917
 30
0.0
 10
17175.99099949562
 20
3909.044395047482
 30
0.0
 10
17171.28581669251
 20
3909.883975880569
 30
0.0
 10
17168.74860646589
 20
3910.156671322472
 30
0.0
 10
17163.55542354061
 20
3910.382505736518
 30
0.0
 10
17160.90042094634
 20
3910.335563960351
 30
0.0
 10
17155.73705391002
 20
3909.926565123693
 30
0.0
 10
17153.229655077
 20
3909.564631524722
 30
0.0
 10
17148.61074847807
 20
3908.559841214928
 30
0.0
 10
17146.50013090467
 20
3907.91745321936
 30
0.0
 10
17142.87966458901
 20
3906.407717512235
 30
0.0
 10
17141.36974627823
 20
3905.541860690177
 30
0.0
 10
17139.40169091932
 20
3903.895339297633
 30
0.0
 10
17138.76706279684
 20
3903.154105998968
 30
0.0
 10
17138.00394425472
 20
3901.69556937753
 30
0.0
 10
17137.82113391903
 20
3900.986399531002
 30
0.0
 10
17137.83010942013
 20
3900.276667473
 30
0.0
  0
LINE
  5
896F3
330
18
100
AcDbEntity
  8
寸法線
 62
     8
100
AcDbLine
 10
17276.78645660074
 20
3897.910787594336
 30
0.0
 11
17285.67989835221
 21
3890.999509036252
 31
0.0
  0
TEXT
  5
896F4
330
18
100
AcDbEntity
  8
文字
100
AcDbText
 10
17038.4552389864
 20
3766.736764083336
 30
0.0
 40
29.997
  1
SX-LN131
100
AcDbText
  0
LINE
  5
8975E
330
18
100
AcDbEntity
  8
寸法線
 62
     8
100
AcDbLine
 10
17285.67989835221
 20
3883.289670664248
 30
0.0
 11
17285.67989835221
 21
3891.003049636161
 31
0.0
  0
ELLIPSE
  5
8975F
330
18
100
AcDbEntity
  8
実線
 62
     8
100
AcDbEllipse
 10
17286.78643707691
 20
3932.98068788381
 30
0.0
 11
-5.157428340220576
 21
0.9541970303638664
 31
0.0
210
0.0
220
0.0
230
1.0
 40
0.400615776736993
 41
0.0
 42
6.283185307179586
  0
ELLIPSE
  5
89760
330
18
100
AcDbEntity
  8
実線
 62
     8
100
AcDbEllipse
 10
17286.78643707691
 20
3934.061278469449
 30
0.0
 11
-5.157428340220576
 21
0.9541970303638664
 31
0.0
210
0.0
220
0.0
230
1.0
 40
0.400615776736993
 41
0.3303199014578144
 42
2.959241327695059
  0
LINE
  5
89761
330
18
100
AcDbEntity
  8
寸法線
 62
     8
100
AcDbLine
 10
17281.11067460195
 20
3942.369162233702
 30
0.0
 11
17283.36639424606
 21
3940.602162233702
 31
0.0
  0
LINE
  5
89762
330
18
100
AcDbEntity
  8
実線
 62
     8
 48
0.5
100
AcDbLine
 10
17280.28795046836
 20
3940.602162233702
 30
0.0
 11
17281.11067460195
 21
3942.369162233702
 31
0.0
  0
LINE
  5
89763
330
18
100
AcDbEntity
  8
実線
 62
     8
 48
0.5
100
AcDbLine
 10
17278.57795046836
 20
3940.602162233702
 30
0.0
 11
17277.75522633476
 21
3942.369162233702
 31
0.0
  0
LINE
  5
89764
330
18
100
AcDbEntity
  8
実線
 62
     8
 48
2.0
100
AcDbLine
 10
17277.75522633476
 20
3942.369162233702
 30
0.0
 11
17281.11067460195
 21
3942.369162233702
 31
0.0
  0
LINE
  5
89765
330
18
100
AcDbEntity
  8
実線
 62
     8
100
AcDbLine
 10
17291.54545046835
 20
3938.892162233703
 30
0.0
 11
17291.54545046835
 21
3940.602162233702
 31
0.0
  0
LINE
  5
89766
330
18
100
AcDbEntity
  8
実線
 62
     8
100
AcDbLine
 10
17280.28795046836
 20
3940.602162233702
 30
0.0
 11
17291.54545046835
 21
3940.602162233702
 31
0.0
  0
LINE
  5
89767
330
18
100
AcDbEntity
  8
実線
 62
     8
100
AcDbLine
 10
17279.63645660074
 20
3928.128254626988
 30
0.0
 11
17305.28645660074
 21
3928.128254626988
 31
0.0
  0
LINE
  5
89768
330
18
100
AcDbEntity
  8
実線
 62
     8
100
AcDbLine
 10
17305.28645660074
 20
3928.128254626988
 30
0.0
 11
17305.28645660074
 21
3929.838254626988
 31
0.0
  0
LINE
  5
89769
330
18
100
AcDbEntity
  8
寸法線
 62
     8
100
AcDbLine
 10
17291.54545046835
 20
3938.892162233703
 30
0.0
 11
17305.28645660074
 21
3928.128254626988
 31
0.0
  0
LINE
  5
8976A
330
18
100
AcDbEntity
  8
寸法線
 62
     8
100
AcDbLine
 10
17291.54545046835
 20
3940.602162233702
 30
0.0
 11
17305.28645660074
 21
3929.838254626988
 31
0.0
  0
LINE
  5
8976B
330
18
100
AcDbEntity
  8
寸法線
 62
     8
100
AcDbLine
 10
17284.91396633852
 20
3965.462157788262
 30
0.0
 11
17284.91396633851
 21
3940.602162233702
 31
0.0
  0
LINE
  5
8976C
330
18
100
AcDbEntity
  8
姿図
 62
     8
 48
2.0
100
AcDbLine
 10
17279.25445260996
 20
3928.128249504271
 30
0.0
 11
17292.35498209771
 21
3928.128249504271
 31
0.0
  0
LINE
  5
8976D
330
18
100
AcDbEntity
  8
寸法線
 62
     8
100
AcDbLine
 10
17284.91396633852
 20
3928.128254626988
 30
0.0
 11
17284.91396633852
 21
3891.16667781226
 31
0.0
  0
LINE
  5
8976E
330
18
100
AcDbEntity
  8
寸法線
 62
     8
100
AcDbLine
 10
17194.12358444636
 20
3954.808881466181
 30
0.0
 11
17194.12358444636
 21
4042.626566545148
 31
0.0
  0
ELLIPSE
  5
8976F
330
18
100
AcDbEntity
  8
寸法線
 62
     8
100
AcDbEllipse
 10
17170.02184298698
 20
4016.374976120322
 30
0.0
 11
0.06951109598740005
 21
2.152782340078776
 31
0.0
210
0.0
220
0.0
230
1.0
 40
0.4932152022865364
 41
0.0
 42
6.283185307179586
  0
LINE
  5
89770
330
18
100
AcDbEntity
  8
寸法線
 62
     8
100
AcDbLine
 10
17164.26009987978
 20
3999.421949819843
 30
0.0
 11
17164.26009987978
 21
4031.201254288096
 31
0.0
  0
ELLIPSE
  5
89771
330
18
100
AcDbEntity
  8
実線
 62
     8
100
AcDbEllipse
 10
17237.50243620878
 20
3972.271411765996
 30
0.0
 11
-5.157428340220576
 21
0.9541970303638664
 31
0.0
210
0.0
220
0.0
230
1.0
 40
0.400615776736993
 41
0.3303199014578144
 42
2.959241327695059
  0
ELLIPSE
  5
89772
330
18
100
AcDbEntity
  8
実線
 62
     8
100
AcDbEllipse
 10
17237.50243620878
 20
3971.190821180357
 30
0.0
 11
-5.157428340220576
 21
0.9541970303638664
 31
0.0
210
0.0
220
0.0
230
1.0
 40
0.400615776736993
 41
0.0
 42
6.283185307179586
  0
LINE
  5
89773
330
18
100
AcDbEntity
  8
実線
 62
     8
 48
0.5
100
AcDbLine
 10
17212.05144960023
 20
3959.859795530248
 30
0.0
 11
17210.28444960023
 21
3960.682519663848
 31
0.0
  0
LINE
  5
89774
330
18
100
AcDbEntity
  8
実線
 62
     8
 48
0.5
100
AcDbLine
 10
17212.05144960023
 20
3958.149795530247
 30
0.0
 11
17210.28444960023
 21
3957.327071396656
 31
0.0
  0
LINE
  5
89775
330
18
100
AcDbEntity
  8
実線
 62
     8
 48
2.0
100
AcDbLine
 10
17210.28444960023
 20
3960.682519663848
 30
0.0
 11
17210.28444960023
 21
3957.327071396656
 31
0.0
  0
LINE
  5
89776
330
18
100
AcDbEntity
  8
実線
 62
     8
 48
2.0
100
AcDbLine
 10
17210.28444960023
 20
3966.097519663849
 30
0.0
 11
17210.28444960023
 21
3962.742071396657
 31
0.0
  0
LINE
  5
89777
330
18
100
AcDbEntity
  8
実線
 62
     8
 48
0.5
100
AcDbLine
 10
17212.05144960023
 20
3963.564795530247
 30
0.0
 11
17210.28444960023
 21
3962.742071396657
 31
0.0
  0
LINE
  5
89778
330
18
100
AcDbEntity
  8
実線
 62
     8
 48
2.0
100
AcDbLine
 10
17210.28444960023
 20
3968.157071396651
 30
0.0
 11
17210.28444960023
 21
3971.512519663848
 31
0.0
  0
LINE
  5
89779
330
18
100
AcDbEntity
  8
実線
 62
     8
 48
0.5
100
AcDbLine
 10
17212.05144960023
 20
3968.979795530247
 30
0.0
 11
17210.28444960023
 21
3968.157071396651
 31
0.0
  0
LINE
  5
8977A
330
18
100
AcDbEntity
  8
実線
 62
     8
 48
2.0
100
AcDbLine
 10
17210.28444960023
 20
3973.572071396652
 30
0.0
 11
17210.28444960023
 21
3976.927519663849
 31
0.0
  0
LINE
  5
8977B
330
18
100
AcDbEntity
  8
実線
 62
     8
 48
0.5
100
AcDbLine
 10
17212.05144960023
 20
3974.394795530247
 30
0.0
 11
17210.28444960023
 21
3973.572071396652
 31
0.0
  0
LINE
  5
8977C
330
18
100
AcDbEntity
  8
寸法線
 62
     8
100
AcDbLine
 10
17212.05144960023
 20
3948.153260279708
 30
0.0
 11
17194.12358444636
 21
3962.149824834981
 31
0.0
  0
LINE
  5
8977D
330
18
100
AcDbEntity
  8
実線
 62
     8
100
AcDbLine
 10
17213.76144960023
 20
3945.752295530247
 30
0.0
 11
17213.76144960023
 21
3974.252295530249
 31
0.0
  0
LINE
  5
8977E
330
18
100
AcDbEntity
  8
実線
 62
     8
100
AcDbLine
 10
17212.05144960023
 20
3958.149795530248
 30
0.0
 11
17212.05144960023
 21
3945.752295530249
 31
0.0
  0
LINE
  5
8977F
330
18
100
AcDbEntity
  8
実線
 62
     8
100
AcDbLine
 10
17227.50245573261
 20
3934.988387923533
 30
0.0
 11
17227.50245573261
 21
3963.488387923535
 31
0.0
  0
LINE
  5
89780
330
18
100
AcDbEntity
  8
実線
 62
     8
100
AcDbLine
 10
17213.76144960023
 20
3945.752295530247
 30
0.0
 11
17212.05144960023
 21
3945.752295530247
 31
0.0
  0
LINE
  5
89781
330
18
100
AcDbEntity
  8
実線
 62
     8
100
AcDbLine
 10
17227.50245573261
 20
3934.988387923533
 30
0.0
 11
17225.79245573261
 21
3934.988387923533
 31
0.0
  0
LINE
  5
89782
330
18
100
AcDbEntity
  8
寸法線
 62
     8
100
AcDbLine
 10
17213.76144960023
 20
3945.752295530247
 30
0.0
 11
17227.50245573261
 21
3934.988387923533
 31
0.0
  0
LINE
  5
89783
330
18
100
AcDbEntity
  8
寸法線
 62
     8
100
AcDbLine
 10
17212.05144960023
 20
3945.752295530247
 30
0.0
 11
17225.79245573261
 21
3934.988387923533
 31
0.0
  0
LINE
  5
89784
330
18
100
AcDbEntity
  8
実線
 62
     8
100
AcDbLine
 10
17216.61144960023
 20
3977.10229553025
 30
0.0
 11
17242.26144960023
 21
3977.10229553025
 31
0.0
  0
LINE
  5
89785
330
18
100
AcDbEntity
  8
姿図
 62
     8
 48
2.0
100
AcDbLine
 10
17216.22944560945
 20
3977.102290407533
 30
0.0
 11
17237.31979907951
 21
3977.102290407533
 31
0.0
  0
LINE
  5
89786
330
18
100
AcDbEntity
  8
実線
 62
     8
100
AcDbLine
 10
17231.00394960023
 20
3978.81229553025
 30
0.0
 11
17242.26144960023
 21
3978.81229553025
 31
0.0
  0
LINE
  5
89787
330
18
100
AcDbEntity
  8
実線
 62
     8
100
AcDbLine
 10
17230.35245573261
 20
3966.338387923534
 30
0.0
 11
17256.00245573261
 21
3966.338387923534
 31
0.0
  0
LINE
  5
89788
330
18
100
AcDbEntity
  8
姿図
 62
     8
 48
2.0
100
AcDbLine
 10
17229.97045174182
 20
3966.338382800817
 30
0.0
 11
17251.06080521189
 21
3966.338382800817
 31
0.0
  0
LINE
  5
89789
330
18
100
AcDbEntity
  8
実線
 62
     8
100
AcDbLine
 10
17225.58894960023
 20
3978.812295530248
 30
0.0
 11
17229.29394960023
 21
3978.81229553025
 31
0.0
  0
LINE
  5
8978A
330
18
100
AcDbEntity
  8
実線
 62
     8
 48
2.0
100
AcDbLine
 10
17220.99667373382
 20
3980.579295530249
 30
0.0
 11
17217.64122546663
 21
3980.579295530249
 31
0.0
  0
LINE
  5
8978B
330
18
100
AcDbEntity
  8
実線
 62
     8
 48
2.0
100
AcDbLine
 10
17215.58167373382
 20
3980.579295530249
 30
0.0
 11
17212.22622546664
 21
3980.579295530249
 31
0.0
  0
LINE
  5
8978C
330
18
100
AcDbEntity
  8
実線
 62
     8
100
AcDbLine
 10
17214.75894960023
 20
3978.81229553025
 30
0.0
 11
17218.46394960023
 21
3978.81229553025
 31
0.0
  0
LINE
  5
8978D
330
18
100
AcDbEntity
  8
実線
 62
     8
 48
0.5
100
AcDbLine
 10
17214.75894960023
 20
3978.81229553025
 30
0.0
 11
17215.58167373382
 21
3980.579295530249
 31
0.0
  0
LINE
  5
8978E
330
18
100
AcDbEntity
  8
実線
 62
     8
 48
0.5
100
AcDbLine
 10
17218.46394960023
 20
3978.81229553025
 30
0.0
 11
17217.64122546663
 21
3980.579295530249
 31
0.0
  0
LINE
  5
8978F
330
18
100
AcDbEntity
  8
実線
 62
     8
 48
2.0
100
AcDbLine
 10
17223.05622546663
 20
3980.579295530249
 30
0.0
 11
17226.41167373382
 21
3980.579295530249
 31
0.0
  0
LINE
  5
89790
330
18
100
AcDbEntity
  8
実線
 62
     8
100
AcDbLine
 10
17220.17394960023
 20
3978.81229553025
 30
0.0
 11
17223.87894960023
 21
3978.81229553025
 31
0.0
  0
LINE
  5
89791
330
18
100
AcDbEntity
  8
実線
 62
     8
 48
0.5
100
AcDbLine
 10
17223.87894960023
 20
3978.81229553025
 30
0.0
 11
17223.05622546663
 21
3980.579295530249
 31
0.0
  0
LINE
  5
89792
330
18
100
AcDbEntity
  8
実線
 62
     8
 48
0.5
100
AcDbLine
 10
17220.17394960023
 20
3978.81229553025
 30
0.0
 11
17220.99667373382
 21
3980.579295530249
 31
0.0
  0
LINE
  5
89793
330
18
100
AcDbEntity
  8
実線
 62
     8
 48
0.5
100
AcDbLine
 10
17225.58894960023
 20
3978.81229553025
 30
0.0
 11
17226.41167373382
 21
3980.579295530249
 31
0.0
  0
LINE
  5
89794
330
18
100
AcDbEntity
  8
実線
 62
     8
 48
2.0
100
AcDbLine
 10
17228.47122546663
 20
3980.579295530249
 30
0.0
 11
17231.82667373382
 21
3980.579295530249
 31
0.0
  0
LINE
  5
89795
330
18
100
AcDbEntity
  8
実線
 62
     8
 48
0.5
100
AcDbLine
 10
17229.29394960023
 20
3978.81229553025
 30
0.0
 11
17228.47122546663
 21
3980.579295530249
 31
0.0
  0
LINE
  5
89796
330
18
100
AcDbEntity
  8
実線
 62
     8
 48
0.5
100
AcDbLine
 10
17231.00394960023
 20
3978.81229553025
 30
0.0
 11
17231.82667373382
 21
3980.579295530249
 31
0.0
  0
LINE
  5
89797
330
18
100
AcDbEntity
  8
実線
 62
     8
 48
0.5
100
AcDbLine
 10
17213.04894960023
 20
3978.81229553025
 30
0.0
 11
17212.22622546664
 21
3980.579295530249
 31
0.0
  0
LINE
  5
89798
330
18
100
AcDbEntity
  8
実線
 62
     8
100
AcDbLine
 10
17212.05144960023
 20
3978.81229553025
 30
0.0
 11
17213.04894960023
 21
3978.81229553025
 31
0.0
  0
LINE
  5
89799
330
18
100
AcDbEntity
  8
実線
 62
     8
100
AcDbLine
 10
17212.05144960023
 20
3978.81229553025
 30
0.0
 11
17212.05144960023
 21
3976.104795530247
 31
0.0
  0
ARC
  5
8979A
330
18
100
AcDbEntity
  8
実線
 62
     8
100
AcDbCircle
 10
17216.61144960023
 20
3974.252295530249
 30
0.0
 40
2.85
100
AcDbArc
 50
90.0
 51
180.0
  0
LINE
  5
8979B
330
18
100
AcDbEntity
  8
実線
 62
     8
 48
0.5
100
AcDbLine
 10
17212.05144960023
 20
3976.104795530247
 30
0.0
 11
17210.28444960023
 21
3976.927519663849
 31
0.0
  0
LINE
  5
8979C
330
18
100
AcDbEntity
  8
実線
 62
     8
100
AcDbLine
 10
17212.05144960023
 20
3974.394795530247
 30
0.0
 11
17212.05144960023
 21
3970.689795530247
 31
0.0
  0
LINE
  5
8979D
330
18
100
AcDbEntity
  8
実線
 62
     8
 48
0.5
100
AcDbLine
 10
17212.05144960023
 20
3970.689795530247
 30
0.0
 11
17210.28444960023
 21
3971.512519663848
 31
0.0
  0
LINE
  5
8979E
330
18
100
AcDbEntity
  8
実線
 62
     8
100
AcDbLine
 10
17212.05144960023
 20
3968.979795530247
 30
0.0
 11
17212.05144960023
 21
3965.274795530248
 31
0.0
  0
LINE
  5
8979F
330
18
100
AcDbEntity
  8
実線
 62
     8
 48
0.5
100
AcDbLine
 10
17212.05144960023
 20
3965.274795530248
 30
0.0
 11
17210.28444960023
 21
3966.097519663849
 31
0.0
  0
LINE
  5
897A0
330
18
100
AcDbEntity
  8
実線
 62
     8
100
AcDbLine
 10
17212.05144960023
 20
3963.564795530247
 30
0.0
 11
17212.05144960023
 21
3959.859795530248
 31
0.0
  0
LINE
  5
897A1
330
18
100
AcDbEntity
  8
実線
 62
     8
 48
0.5
100
AcDbLine
 10
17212.05144960023
 20
3959.859795530248
 30
0.0
 11
17210.89668172897
 21
3960.397461289383
 31
0.0
  0
ARC
  5
897A2
330
18
100
AcDbEntity
  8
実線
 62
     8
100
AcDbCircle
 10
17230.35245573261
 20
3963.488387923535
 30
0.0
 40
2.85
100
AcDbArc
 50
90.0
 51
180.0
  0
LINE
  5
897A3
330
18
100
AcDbEntity
  8
寸法線
 62
     8
100
AcDbLine
 10
17226.41167373382
 20
3980.579295530249
 30
0.0
 11
17228.66739337793
 21
3978.812295530249
 31
0.0
  0
LINE
  5
897A4
330
18
100
AcDbEntity
  8
寸法線
 62
     8
100
AcDbLine
 10
17220.99667373382
 20
3980.579295530249
 30
0.0
 11
17223.25239337793
 21
3978.81229553025
 31
0.0
  0
LINE
  5
897A5
330
18
100
AcDbEntity
  8
寸法線
 62
     8
100
AcDbLine
 10
17215.58167373382
 20
3980.579295530249
 30
0.0
 11
17217.83739337794
 21
3978.81229553025
 31
0.0
  0
LINE
  5
897A6
330
18
100
AcDbEntity
  8
寸法線
 62
     8
100
AcDbLine
 10
17216.22529299192
 20
3975.660984830361
 30
0.0
 11
17227.35764243131
 21
3966.761187531466
 31
0.0
  0
LINE
  5
897A7
330
18
100
AcDbEntity
  8
寸法線
 62
     8
100
AcDbLine
 10
17231.82667373382
 20
3980.579295530249
 30
0.0
 11
17234.08239337794
 21
3978.81229553025
 31
0.0
  0
LINE
  5
897A8
330
18
100
AcDbEntity
  8
実線
 62
     8
100
AcDbLine
 10
17256.00245573261
 20
3966.338387923534
 30
0.0
 11
17256.00245573261
 21
3968.048387923534
 31
0.0
  0
LINE
  5
897A9
330
18
100
AcDbEntity
  8
実線
 62
     8
100
AcDbLine
 10
17242.26144960023
 20
3977.10229553025
 30
0.0
 11
17242.26144960023
 21
3978.81229553025
 31
0.0
  0
LINE
  5
897AA
330
18
100
AcDbEntity
  8
寸法線
 62
     8
100
AcDbLine
 10
17242.26144960023
 20
3978.81229553025
 30
0.0
 11
17256.00245573261
 21
3968.048387923534
 31
0.0
  0
LINE
  5
897AB
330
18
100
AcDbEntity
  8
寸法線
 62
     8
100
AcDbLine
 10
17242.26144960023
 20
3977.10229553025
 30
0.0
 11
17256.00245573261
 21
3966.338387923534
 31
0.0
  0
LINE
  5
897AC
330
18
100
AcDbEntity
  8
寸法線
 62
     8
100
AcDbLine
 10
17225.30030889801
 20
3899.731402311249
 30
0.0
 11
17225.30030889801
 21
3890.590369127415
 31
0.0
  0
LINE
  5
897AD
330
18
100
AcDbEntity
  8
寸法線
 62
     8
100
AcDbLine
 10
17151.57272417676
 20
3878.976495663683
 30
0.0
 11
17225.30030889801
 21
3890.590369127414
 31
0.0
  0
LINE
  5
897AE
330
18
100
AcDbEntity
  8
実線
 62
     8
100
AcDbLine
 10
17276.78645660074
 20
3896.778254626985
 30
0.0
 11
17276.78645660074
 21
3925.278254626987
 31
0.0
  0
LINE
  5
897AF
330
18
100
AcDbEntity
  8
寸法線
 62
     8
100
AcDbLine
 10
17261.33545046836
 20
3907.542162233701
 30
0.0
 11
17275.07645660073
 21
3896.778254626985
 31
0.0
  0
LINE
  5
897B0
330
18
100
AcDbEntity
  8
寸法線
 62
     8
100
AcDbLine
 10
17263.04545046835
 20
3907.542162233701
 30
0.0
 11
17276.78645660074
 21
3896.778254626985
 31
0.0
  0
LINE
  5
897B1
330
18
100
AcDbEntity
  8
実線
 62
     8
100
AcDbLine
 10
17276.78645660074
 20
3896.778254626985
 30
0.0
 11
17275.07645660073
 21
3896.778254626985
 31
0.0
  0
LINE
  5
897B2
330
18
100
AcDbEntity
  8
寸法線
 62
     8
100
AcDbLine
 10
17264.86567460194
 20
3942.369162233702
 30
0.0
 11
17267.12139424606
 21
3940.602162233702
 31
0.0
  0
LINE
  5
897B3
330
18
100
AcDbEntity
  8
実線
 62
     8
100
AcDbLine
 10
17264.04295046835
 20
3940.602162233702
 30
0.0
 11
17267.74795046835
 21
3940.602162233702
 31
0.0
  0
LINE
  5
897B4
330
18
100
AcDbEntity
  8
実線
 62
     8
100
AcDbLine
 10
17261.33545046836
 20
3940.602162233702
 30
0.0
 11
17262.33295046835
 21
3940.602162233702
 31
0.0
  0
LINE
  5
897B5
330
18
100
AcDbEntity
  8
実線
 62
     8
 48
0.5
100
AcDbLine
 10
17262.33295046835
 20
3940.602162233702
 30
0.0
 11
17261.51022633476
 21
3942.369162233702
 31
0.0
  0
LINE
  5
897B6
330
18
100
AcDbEntity
  8
実線
 62
     8
 48
0.5
100
AcDbLine
 10
17264.04295046835
 20
3940.602162233702
 30
0.0
 11
17264.86567460194
 21
3942.369162233702
 31
0.0
  0
LINE
  5
897B7
330
18
100
AcDbEntity
  8
実線
 62
     8
 48
2.0
100
AcDbLine
 10
17264.86567460194
 20
3942.369162233702
 30
0.0
 11
17261.51022633476
 21
3942.369162233702
 31
0.0
  0
LINE
  5
897B8
330
18
100
AcDbEntity
  8
寸法線
 62
     8
100
AcDbLine
 10
17270.28067460195
 20
3942.369162233702
 30
0.0
 11
17272.53639424606
 21
3940.602162233702
 31
0.0
  0
LINE
  5
897B9
330
18
100
AcDbEntity
  8
実線
 62
     8
 48
0.5
100
AcDbLine
 10
17274.87295046835
 20
3940.602162233702
 30
0.0
 11
17275.69567460195
 21
3942.369162233702
 31
0.0
  0
LINE
  5
897BA
330
18
100
AcDbEntity
  8
実線
 62
     8
 48
0.5
100
AcDbLine
 10
17273.16295046836
 20
3940.602162233702
 30
0.0
 11
17272.34022633476
 21
3942.369162233702
 31
0.0
  0
LINE
  5
897BB
330
18
100
AcDbEntity
  8
実線
 62
     8
 48
2.0
100
AcDbLine
 10
17272.34022633476
 20
3942.369162233702
 30
0.0
 11
17275.69567460195
 21
3942.369162233702
 31
0.0
  0
LINE
  5
897BC
330
18
100
AcDbEntity
  8
実線
 62
     8
 48
0.5
100
AcDbLine
 10
17267.74795046835
 20
3940.602162233702
 30
0.0
 11
17266.92522633476
 21
3942.369162233702
 31
0.0
  0
LINE
  5
897BD
330
18
100
AcDbEntity
  8
実線
 62
     8
 48
0.5
100
AcDbLine
 10
17269.45795046835
 20
3940.602162233702
 30
0.0
 11
17270.28067460195
 21
3942.369162233702
 31
0.0
  0
LINE
  5
897BE
330
18
100
AcDbEntity
  8
実線
 62
     8
100
AcDbLine
 10
17269.45795046835
 20
3940.602162233702
 30
0.0
 11
17273.16295046836
 21
3940.602162233702
 31
0.0
  0
LINE
  5
897BF
330
18
100
AcDbEntity
  8
実線
 62
     8
 48
2.0
100
AcDbLine
 10
17270.28067460195
 20
3942.369162233702
 30
0.0
 11
17266.92522633476
 21
3942.369162233702
 31
0.0
  0
LINE
  5
897C0
330
18
100
AcDbEntity
  8
実線
 62
     8
100
AcDbLine
 10
17263.04545046835
 20
3907.542162233701
 30
0.0
 11
17263.04545046835
 21
3936.042162233703
 31
0.0
  0
LINE
  5
897C1
330
18
100
AcDbEntity
  8
寸法線
 62
     8
100
AcDbLine
 10
17264.58386170637
 20
3936.511440190429
 30
0.0
 11
17276.49303464491
 21
3927.585670689656
 31
0.0
  0
LINE
  5
897C2
330
18
100
AcDbEntity
  8
実線
 62
     8
100
AcDbLine
 10
17261.33545046836
 20
3919.939662233701
 30
0.0
 11
17261.33545046836
 21
3907.542162233703
 31
0.0
  0
LINE
  5
897C3
330
18
100
AcDbEntity
  8
実線
 62
     8
100
AcDbLine
 10
17263.04545046835
 20
3907.542162233701
 30
0.0
 11
17261.33545046836
 21
3907.542162233701
 31
0.0
  0
LINE
  5
897C4
330
18
100
AcDbEntity
  8
実線
 62
     8
 48
0.5
100
AcDbLine
 10
17261.33545046836
 20
3925.354662233701
 30
0.0
 11
17259.56845046835
 21
3924.531938100113
 31
0.0
  0
LINE
  5
897C5
330
18
100
AcDbEntity
  8
実線
 62
     8
 48
2.0
100
AcDbLine
 10
17259.56845046835
 20
3927.887386367302
 30
0.0
 11
17259.56845046835
 21
3924.531938100113
 31
0.0
  0
LINE
  5
897C6
330
18
100
AcDbEntity
  8
実線
 62
     8
 48
0.5
100
AcDbLine
 10
17261.33545046836
 20
3930.7696622337
 30
0.0
 11
17259.56845046835
 21
3929.94693810011
 31
0.0
  0
LINE
  5
897C7
330
18
100
AcDbEntity
  8
実線
 62
     8
100
AcDbLine
 10
17261.33545046836
 20
3925.354662233701
 30
0.0
 11
17261.33545046836
 21
3921.649662233701
 31
0.0
  0
LINE
  5
897C8
330
18
100
AcDbEntity
  8
実線
 62
     8
 48
0.5
100
AcDbLine
 10
17261.33545046836
 20
3927.064662233701
 30
0.0
 11
17259.56845046835
 21
3927.887386367302
 31
0.0
  0
LINE
  5
897C9
330
18
100
AcDbEntity
  8
実線
 62
     8
100
AcDbLine
 10
17261.33545046836
 20
3930.7696622337
 30
0.0
 11
17261.33545046836
 21
3927.064662233701
 31
0.0
  0
LINE
  5
897CA
330
18
100
AcDbEntity
  8
実線
 62
     8
 48
2.0
100
AcDbLine
 10
17259.56845046835
 20
3929.94693810011
 30
0.0
 11
17259.56845046835
 21
3933.302386367302
 31
0.0
  0
LINE
  5
897CB
330
18
100
AcDbEntity
  8
実線
 62
     8
 48
0.5
100
AcDbLine
 10
17261.33545046836
 20
3936.184662233701
 30
0.0
 11
17259.56845046835
 21
3935.361938100108
 31
0.0
  0
LINE
  5
897CC
330
18
100
AcDbEntity
  8
実線
 62
     8
 48
0.5
100
AcDbLine
 10
17261.33545046836
 20
3932.479662233701
 30
0.0
 11
17259.56845046835
 21
3933.302386367302
 31
0.0
  0
LINE
  5
897CD
330
18
100
AcDbEntity
  8
実線
 62
     8
100
AcDbLine
 10
17261.33545046836
 20
3936.184662233701
 30
0.0
 11
17261.33545046836
 21
3932.479662233701
 31
0.0
  0
ARC
  5
897CE
330
18
100
AcDbEntity
  8
実線
 62
     8
100
AcDbCircle
 10
17265.89545046835
 20
3936.042162233703
 30
0.0
 40
2.85
100
AcDbArc
 50
90.0
 51
180.0
  0
LINE
  5
897CF
330
18
100
AcDbEntity
  8
実線
 62
     8
 48
2.0
100
AcDbLine
 10
17259.56845046835
 20
3935.361938100108
 30
0.0
 11
17259.56845046835
 21
3938.717386367302
 31
0.0
  0
LINE
  5
897D0
330
18
100
AcDbEntity
  8
実線
 62
     8
 48
0.5
100
AcDbLine
 10
17261.33545046836
 20
3937.8946622337
 30
0.0
 11
17259.56845046835
 21
3938.717386367302
 31
0.0
  0
LINE
  5
897D1
330
18
100
AcDbEntity
  8
実線
 62
     8
100
AcDbLine
 10
17261.33545046836
 20
3940.602162233702
 30
0.0
 11
17261.33545046836
 21
3937.8946622337
 31
0.0
  0
LINE
  5
897D2
330
18
100
AcDbEntity
  8
寸法線
 62
     8
100
AcDbLine
 10
17179.04665906376
 20
3933.585934437613
 30
0.0
 11
17179.04665906376
 21
3924.444901253778
 31
0.0
  0
LINE
  5
897D3
330
18
100
AcDbEntity
  8
寸法線
 62
     8
100
AcDbLine
 10
17179.04665906376
 20
3933.585934437613
 30
0.0
 11
17179.04665906376
 21
3924.444901253778
 31
0.0
  0
LINE
  5
897D4
330
18
100
AcDbEntity
  8
寸法線
 62
     8
100
AcDbLine
 10
17099.74053706255
 20
3919.496710344136
 30
0.0
 11
17099.74053706255
 21
3910.3556771603
 31
0.0
  0
LINE
  5
897D5
330
18
100
AcDbEntity
  8
寸法線
 62
     8
100
AcDbLine
 10
17099.74053706255
 20
3919.496710344136
 30
0.0
 11
17099.74053706255
 21
3910.3556771603
 31
0.0
  0
LINE
  5
897D6
330
18
100
AcDbEntity
  8
寸法線
 62
     8
100
AcDbLine
 10
17179.04665906376
 20
3924.444901253778
 30
0.0
 11
17099.74053706255
 21
3910.3556771603
 31
0.0
  0
LINE
  5
897D7
330
18
100
AcDbEntity
  8
寸法線
 62
     8
100
AcDbLine
 10
17179.04665906376
 20
3933.585934437613
 30
0.0
 11
17099.74053706255
 21
3919.496710344136
 31
0.0
  0
LINE
  5
897D8
330
18
100
AcDbEntity
  8
寸法線
 62
     8
100
AcDbLine
 10
17099.74053706255
 20
3910.3556771603
 30
0.0
 11
17151.57272417676
 21
3878.976495663683
 31
0.0
  0
LINE
  5
897D9
330
18
100
AcDbEntity
  8
寸法線
 62
     8
100
AcDbLine
 10
17225.30030889801
 20
3890.590369127415
 30
0.0
 11
17179.04665906376
 21
3924.444901253778
 31
0.0
  0
LINE
  5
897DA
330
18
100
AcDbEntity
  8
寸法線
 62
     8
100
AcDbLine
 10
17225.30030889801
 20
3899.731402311248
 30
0.0
 11
17179.04665906376
 21
3933.585934437613
 31
0.0
  0
ELLIPSE
  5
897DB
330
18
100
AcDbEntity
  8
寸法線
 62
     8
100
AcDbEllipse
 10
17162.67866806929
 20
3900.590910380412
 30
0.0
 11
-24.34859862675003
 21
-0.3079202513064958
 31
0.0
210
0.0
220
0.0
230
1.0
 40
0.3792278995966104
 41
0.0
 42
6.283185307179586
  0
ELLIPSE
  5
897DC
330
18
100
AcDbEntity
  8
寸法線
 62
     8
100
AcDbEllipse
 10
17160.50293746045
 20
3904.503576725429
 30
0.0
 11
-24.34859862675003
 21
-0.3079202513064959
 31
0.0
210
0.0
220
0.0
230
1.0
 40
0.3792278995966104
 41
0.4213615905304035
 42
3.123944321263648
  0
ELLIPSE
  5
897DD
330
18
100
AcDbEntity
  8
寸法線
 62
     8
100
AcDbEllipse
 10
17160.73541425222
 20
3903.342254904715
 30
0.0
 11
-24.34859862675003
 21
-0.3079202513064959
 31
0.0
210
0.0
220
0.0
230
1.0
 40
0.3792278995966104
 41
0.4213615905304035
 42
3.123944321263648
  0
ELLIPSE
  5
897DE
330
18
100
AcDbEntity
  8
寸法線
 62
     8
100
AcDbEllipse
 10
17162.130334475
 20
3901.25187562742
 30
0.0
 11
-24.34859862675003
 21
-0.307920251306496
 31
0.0
210
0.0
220
0.0
230
1.0
 40
0.3792278995966104
 41
0.4213615905304035
 42
3.123944321263648
  0
ELLIPSE
  5
897DF
330
18
100
AcDbEntity
  8
寸法線
 62
     8
100
AcDbEllipse
 10
17161.89785768323
 20
3902.413197448135
 30
0.0
 11
-24.34859862675003
 21
-0.3079202513064959
 31
0.0
210
0.0
220
0.0
230
1.0
 40
0.3792278995966104
 41
0.4213615905304035
 42
3.123944321263648
  0
LINE
  5
897E0
330
18
100
AcDbEntity
  8
寸法線
 62
     8
100
AcDbLine
 10
17038.306795012
 20
3934.468006477585
 30
0.0
 11
17038.306795012
 21
4015.749594639249
 31
0.0
  0
LINE
  5
897E1
330
18
100
AcDbEntity
  8
寸法線
 62
     8
100
AcDbLine
 10
17037.27388240095
 20
3926.943559781694
 30
0.0
 11
17037.27388240095
 21
3934.284503150494
 31
0.0
  0
ELLIPSE
  5
897E2
330
18
100
AcDbEntity
  8
寸法線
 62
     8
100
AcDbEllipse
 10
17056.70696860549
 20
3995.935490948264
 30
0.0
 11
0.06951109598740005
 21
2.152782340078775
 31
0.0
210
0.0
220
0.0
230
1.0
 40
0.4932152022865365
 41
0.0
 42
6.283185307179586
  0
LINE
  5
897E3
330
18
100
AcDbEntity
  8
寸法線
 62
     8
100
AcDbLine
 10
17061.99159478705
 20
3981.253316054919
 30
0.0
 11
17061.99159478705
 21
4013.032620523171
 31
0.0
  0
LINE
  5
897E4
330
18
100
AcDbEntity
  8
寸法線
 62
     8
100
AcDbLine
 10
17193.34033570051
 20
4043.292264002559
 30
0.0
 11
17038.306795012
 21
4015.749594639249
 31
0.0
  0
LINE
  5
897E5
330
18
100
AcDbEntity
  8
寸法線
 62
     8
100
AcDbLine
 10
17194.12358444636
 20
3962.149824834981
 30
0.0
 11
17037.27388240095
 21
3934.284503150494
 31
0.0
  0
LINE
  5
897E6
330
18
100
AcDbEntity
  8
寸法線
 62
     8
100
AcDbLine
 10
17194.12358444636
 20
3954.808881466181
 30
0.0
 11
17037.27388240095
 21
3926.943559781694
 31
0.0
  0
LINE
  5
897E7
330
18
100
AcDbEntity
  8
寸法線
 62
     8
100
AcDbLine
 10
17164.26009987978
 20
4031.201254288096
 30
0.0
 11
17061.99159478705
 21
4013.032620523171
 31
0.0
  0
LINE
  5
897E8
330
18
100
AcDbEntity
  8
寸法線
 62
     8
100
AcDbLine
 10
17164.26009987978
 20
3999.421949819843
 30
0.0
 11
17061.99159478705
 21
3981.253316054919
 31
0.0
  0
LINE
  5
897E9
330
18
100
AcDbEntity
  8
寸法線
 62
     8
100
AcDbLine
 10
17164.26009987978
 20
4022.07691713045
 30
0.0
 11
17061.99159478705
 21
4003.908283365526
 31
0.0
  0
LINE
  5
897EA
330
18
100
AcDbEntity
  8
寸法線
 62
     8
100
AcDbLine
 10
17037.27388240095
 20
3926.943559781694
 30
0.0
 11
17150.63484870716
 21
3861.282050630815
 31
0.0
  0
LINE
  5
897EB
330
18
100
AcDbEntity
  8
寸法線
 62
     8
100
AcDbLine
 10
17150.63484870716
 20
3861.282050630815
 30
0.0
 11
17285.67989835221
 21
3883.289670664248
 31
0.0
  0
LINE
  5
897EC
330
18
100
AcDbEntity
  8
寸法線
 62
     8
100
AcDbLine
 10
17193.34033570051
 20
4043.292264002559
 30
0.0
 11
17284.91396633852
 21
3965.462157788262
 31
0.0
  0
LINE
  5
897ED
330
18
100
AcDbEntity
  8
寸法線
 62
     8
100
AcDbLine
 10
17275.69567460195
 20
3942.369162233702
 30
0.0
 11
17277.95139424607
 21
3940.602162233702
 31
0.0
  0
LINE
  5
897EE
330
18
100
AcDbEntity
  8
実線
 62
     8
100
AcDbLine
 10
17274.87295046835
 20
3940.6021622337
 30
0.0
 11
17278.57795046836
 21
3940.602162233702
 31
0.0
  0
LINE
  5
897EF
330
18
100
AcDbEntity
  8
姿図
 62
     8
 48
2.0
100
AcDbLine
 10
17265.51344647757
 20
3938.892157110986
 30
0.0
 11
17286.60379994764
 21
3938.892157110986
 31
0.0
  0
LINE
  5
897F0
330
18
100
AcDbEntity
  8
実線
 62
     8
100
AcDbLine
 10
17265.89545046835
 20
3938.892162233703
 30
0.0
 11
17291.54545046835
 21
3938.892162233703
 31
0.0
  0
ARC
  5
897F1
330
18
100
AcDbEntity
  8
実線
 62
     8
100
AcDbCircle
 10
17279.63645660074
 20
3925.278254626987
 30
0.0
 40
2.85
100
AcDbArc
 50
90.0
 51
180.0
  0
LINE
  5
897F2
330
18
100
AcDbEntity
  8
寸法線
 62
     8
100
AcDbLine
 10
17194.12358444636
 20
3954.808881466181
 30
0.0
 11
17285.67989835221
 21
3883.394825231671
 31
0.0
  0
LINE
  5
897F3
330
18
100
AcDbEntity
  8
寸法線
 62
     8
100
AcDbLine
 10
17227.50245573261
 20
3936.210409717591
 30
0.0
 11
17261.33545046836
 21
3909.918085822372
 31
0.0
  0
ENDSEC
  0
SECTION
  2
OBJECTS
  0
DICTIONARY
  5
C
330
0
100
AcDbDictionary
281
     1
  3
ACAD_GROUP
350
D
  3
ACAD_IMAGE_VARS
350
89D4B
  3
ACAD_LAYOUT
350
1EF
  3
ACAD_MLINESTYLE
350
E
  3
ACAD_PLOTSETTINGS
350
1F0
  3
ACAD_PLOTSTYLENAME
350
1ED
  3
ACAD_SCALELIST
350
822BC
  3
AcDbVariableDictionary
350
8DE
  3
APPDATA
350
89D4A
  3
DWGPROPS
350
89D6E
  0
DICTIONARY
  5
ABF
330
2
100
AcDbDictionary
280
     1
281
     1
  3
ACAD_LAYERSTATES
360
AC0
  0
DICTIONARY
  5
8297B
330
F
100
AcDbDictionary
280
     1
281
     1
  3
ADSK_XREC_LAYER_RECONCILED
360
8297C
  0
DICTIONARY
  5
8297D
330
2F
100
AcDbDictionary
280
     1
281
     1
  3
ADSK_XREC_LAYER_RECONCILED
360
8297E
  0
DICTIONARY
  5
82981
330
36
100
AcDbDictionary
280
     1
281
     1
  3
ADSK_XREC_LAYER_RECONCILED
360
82982
  0
DICTIONARY
  5
82983
330
AB4
100
AcDbDictionary
280
     1
281
     1
  3
ADSK_XREC_LAYER_RECONCILED
360
82984
  0
DICTIONARY
  5
82985
330
AB5
100
AcDbDictionary
280
     1
281
     1
  3
ADSK_XREC_LAYER_RECONCILED
360
82986
  0
DICTIONARY
  5
82987
330
AB6
100
AcDbDictionary
280
     1
281
     1
  3
ADSK_XREC_LAYER_RECONCILED
360
82988
  0
DICTIONARY
  5
82991
330
B6A9
100
AcDbDictionary
280
     1
281
     1
  3
ADSK_XREC_LAYER_RECONCILED
360
82992
  0
DICTIONARY
  5
82993
330
16E15
100
AcDbDictionary
280
     1
281
     1
  3
ADSK_XREC_LAYER_RECONCILED
360
82994
  0
DICTIONARY
  5
D
102
{ACAD_REACTORS
330
C
102
}
330
C
100
AcDbDictionary
281
     1
  0
RASTERVARIABLES
  5
89D4B
102
{ACAD_REACTORS
330
C
102
}
330
C
100
AcDbRasterVariables
 90
        0
 70
     1
 71
     1
 72
     0
  0
DICTIONARY
  5
1EF
102
{ACAD_REACTORS
330
C
102
}
330
C
100
AcDbDictionary
281
     1
  3
Model
350
1F1
  3
ﾚｲｱｳﾄ1
350
1F2
  0
DICTIONARY
  5
E
102
{ACAD_REACTORS
330
C
102
}
330
C
100
AcDbDictionary
281
     1
  3
STANDARD
350
1B
  0
DICTIONARY
  5
1F0
102
{ACAD_REACTORS
330
C
102
}
330
C
100
AcDbDictionary
281
     1
  0
ACDBDICTIONARYWDFLT
  5
1ED
102
{ACAD_REACTORS
330
C
102
}
330
C
100
AcDbDictionary
281
     1
  3
Normal
350
1EE
100
AcDbDictionaryWithDefault
340
1EE
  0
DICTIONARY
  5
822BC
102
{ACAD_REACTORS
330
C
102
}
330
C
100
AcDbDictionary
281
     1
  3
A0
350
822BD
  3
A1
350
822BE
  3
A2
350
822BF
  3
A3
350
822C0
  3
A4
350
822C1
  3
A5
350
822C2
  3
A6
350
822C3
  3
A7
350
822C4
  3
A8
350
822C5
  3
A9
350
822C6
  3
B0
350
822C7
  3
B1
350
822C8
  3
B2
350
822C9
  3
B3
350
822CA
  3
B4
350
822CB
  3
B5
350
822CC
  3
B6
350
822CD
  3
B7
350
822CE
  3
B8
350
822CF
  3
B9
350
822D0
  3
C0
350
822D1
  3
C1
350
822D2
  3
C2
350
822D3
  3
C3
350
822D4
  3
C4
350
822D5
  3
C5
350
822D6
  3
C6
350
822D7
  3
C7
350
822D8
  3
C8
350
822D9
  3
C9
350
822DA
  3
D0
350
822DB
  3
D1
350
822DC
  3
D2
350
822DD
  0
DICTIONARY
  5
8DE
102
{ACAD_REACTORS
330
C
102
}
330
C
100
AcDbDictionary
281
     1
  3
DIMASSOC
350
8DF
  3
INDEXCTL
350
829AB
  3
PROJECTNAME
350
8E0
  3
SORTENTS
350
829AA
  0
DICTIONARY
  5
89D4A
102
{ACAD_REACTORS
330
C
102
}
330
C
100
AcDbDictionary
281
     1
  0
XRECORD
  5
89D6E
102
{ACAD_REACTORS
330
C
102
}
330
C
100
AcDbXrecord
280
     1
  1
DWGPROPS COOKIE
  2

  3

  4

  6

  7

  8
SPAX
  9

300
=
301
=
302
=
303
=
304
=
305
=
306
=
307
=
308
=
309
=
 40
0.0
 41
2448499.233101852
 42
2456822.108266261
  1

 90
        0
  0
DICTIONARY
  5
AC0
102
{ACAD_REACTORS
330
ABF
102
}
330
ABF
100
AcDbDictionary
281
     1
  0
XRECORD
  5
8297C
102
{ACAD_REACTORS
330
8297B
102
}
330
8297B
100
AcDbXrecord
280
     1
290
     1
  0
XRECORD
  5
8297E
102
{ACAD_REACTORS
330
8297D
102
}
330
8297D
100
AcDbXrecord
280
     1
290
     1
  0
XRECORD
  5
82982
102
{ACAD_REACTORS
330
82981
102
}
330
82981
100
AcDbXrecord
280
     1
290
     1
  0
XRECORD
  5
82984
102
{ACAD_REACTORS
330
82983
102
}
330
82983
100
AcDbXrecord
280
     1
290
     1
  0
XRECORD
  5
82986
102
{ACAD_REACTORS
330
82985
102
}
330
82985
100
AcDbXrecord
280
     1
290
     1
  0
XRECORD
  5
82988
102
{ACAD_REACTORS
330
82987
102
}
330
82987
100
AcDbXrecord
280
     1
290
     1
  0
XRECORD
  5
82992
102
{ACAD_REACTORS
330
82991
102
}
330
82991
100
AcDbXrecord
280
     1
290
     1
  0
XRECORD
  5
82994
102
{ACAD_REACTORS
330
82993
102
}
330
82993
100
AcDbXrecord
280
     1
290
     1
  0
LAYOUT
  5
1F1
102
{ACAD_REACTORS
330
1EF
102
}
330
1EF
100
AcDbPlotSettings
  1

  2
FX ApeosPort-IV C3370
  4
A4
  6

 40
4.900083065032959
 41
4.900057315826416
 42
4.90008544921875
 43
4.90008544921875
 44
210.0156707763672
 45
297.0106506347656
 46
12.61014188360458
 47
8.108916365526966
 48
16935.45657280471
 49
4705.308874024997
140
18685.40875775378
141
7415.235625411662
142
1.0
143
10.0
 70
 11956
 72
     1
 73
     0
 74
     4
  7
spax form.ctb
 75
    20
147
0.1
148
-16935.45657280471
149
-4705.308874024997
100
AcDbLayout
  1
Model
 70
     1
 71
     0
 10
0.0
 20
0.0
 11
12.0
 21
9.0
 12
0.0
 22
0.0
 32
0.0
 14
17037.27388240095
 24
3766.736764083336
 34
0.0
 15
17305.28645660074
 25
4043.292264002559
 35
0.0
146
0.0
 13
0.0
 23
0.0
 33
0.0
 16
1.0
 26
0.0
 36
0.0
 17
0.0
 27
1.0
 37
0.0
 76
     0
330
18
331
87C63
1001
ACAD_PSEXT
1000
FX ApeosPort-IV C3370
1000
FX ApeosPort-IV C3370
1000
IP_192.168.6.107
1000

1070
     0
  0
LAYOUT
  5
1F2
102
{ACAD_REACTORS
330
1EF
102
}
330
1EF
100
AcDbPlotSettings
  1

  2
Canon LBP-310 LIPS3
  4

  6

 40
0.0
 41
0.0
 42
0.0
 43
0.0
 44
0.0
 45
0.0
 46
0.0
 47
0.0
 48
0.0
 49
0.0
140
0.0
141
0.0
142
1.0
143
1.0
 70
   688
 72
     0
 73
     0
 74
     5
  7
spax form.ctb
 75
    16
147
1.0
148
0.0
149
0.0
100
AcDbLayout
  1
ﾚｲｱｳﾄ1
 70
     0
 71
     1
 10
0.0
 20
0.0
 11
12.0
 21
9.0
 12
0.0
 22
0.0
 32
0.0
 14
1.000000000000000E+20
 24
1.000000000000000E+20
 34
1.000000000000000E+20
 15
-1.000000000000000E+20
 25
-1.000000000000000E+20
 35
-1.000000000000000E+20
146
0.0
 13
0.0
 23
0.0
 33
0.0
 16
1.0
 26
0.0
 36
0.0
 17
0.0
 27
1.0
 37
0.0
 76
     0
330
15
  0
MLINESTYLE
  5
1B
102
{ACAD_REACTORS
330
E
102
}
330
E
100
AcDbMlineStyle
  2
STANDARD
 70
     0
  3

 62
     0
 51
90.0
 52
90.0
 71
     2
 49
0.5
 62
   256
  6
BYLAYER
 49
-0.5
 62
   256
  6
BYLAYER
  0
ACDBPLACEHOLDER
  5
1EE
102
{ACAD_REACTORS
330
1ED
102
}
330
1ED
  0
SCALE
  5
822BD
102
{ACAD_REACTORS
330
822BC
102
}
330
822BC
100
AcDbScale
 70
     0
300
1:1
140
1.0
141
1.0
290
     1
1001
ACAD
1000
AcRTDxfName
1000
SCALE
1000
AcRTDxfName
1000
SCALE
  0
SCALE
  5
822BE
102
{ACAD_REACTORS
330
822BC
102
}
330
822BC
100
AcDbScale
 70
     0
300
1:2
140
1.0
141
2.0
290
     0
1001
ACAD
1000
AcRTDxfName
1000
SCALE
1000
AcRTDxfName
1000
SCALE
  0
SCALE
  5
822BF
102
{ACAD_REACTORS
330
822BC
102
}
330
822BC
100
AcDbScale
 70
     0
300
1:4
140
1.0
141
4.0
290
     0
1001
ACAD
1000
AcRTDxfName
1000
SCALE
1000
AcRTDxfName
1000
SCALE
  0
SCALE
  5
822C0
102
{ACAD_REACTORS
330
822BC
102
}
330
822BC
100
AcDbScale
 70
     0
300
1:5
140
1.0
141
5.0
290
     0
1001
ACAD
1000
AcRTDxfName
1000
SCALE
1000
AcRTDxfName
1000
SCALE
  0
SCALE
  5
822C1
102
{ACAD_REACTORS
330
822BC
102
}
330
822BC
100
AcDbScale
 70
     0
300
1:8
140
1.0
141
8.0
290
     0
1001
ACAD
1000
AcRTDxfName
1000
SCALE
1000
AcRTDxfName
1000
SCALE
  0
SCALE
  5
822C2
102
{ACAD_REACTORS
330
822BC
102
}
330
822BC
100
AcDbScale
 70
     0
300
1:10
140
1.0
141
10.0
290
     0
1001
ACAD
1000
AcRTDxfName
1000
SCALE
1000
AcRTDxfName
1000
SCALE
  0
SCALE
  5
822C3
102
{ACAD_REACTORS
330
822BC
102
}
330
822BC
100
AcDbScale
 70
     0
300
1:16
140
1.0
141
16.0
290
     0
1001
ACAD
1000
AcRTDxfName
1000
SCALE
1000
AcRTDxfName
1000
SCALE
  0
SCALE
  5
822C4
102
{ACAD_REACTORS
330
822BC
102
}
330
822BC
100
AcDbScale
 70
     0
300
1:20
140
1.0
141
20.0
290
     0
1001
ACAD
1000
AcRTDxfName
1000
SCALE
1000
AcRTDxfName
1000
SCALE
  0
SCALE
  5
822C5
102
{ACAD_REACTORS
330
822BC
102
}
330
822BC
100
AcDbScale
 70
     0
300
1:30
140
1.0
141
30.0
290
     0
1001
ACAD
1000
AcRTDxfName
1000
SCALE
1000
AcRTDxfName
1000
SCALE
  0
SCALE
  5
822C6
102
{ACAD_REACTORS
330
822BC
102
}
330
822BC
100
AcDbScale
 70
     0
300
1:40
140
1.0
141
40.0
290
     0
1001
ACAD
1000
AcRTDxfName
1000
SCALE
1000
AcRTDxfName
1000
SCALE
  0
SCALE
  5
822C7
102
{ACAD_REACTORS
330
822BC
102
}
330
822BC
100
AcDbScale
 70
     0
300
1:50
140
1.0
141
50.0
290
     0
1001
ACAD
1000
AcRTDxfName
1000
SCALE
1000
AcRTDxfName
1000
SCALE
  0
SCALE
  5
822C8
102
{ACAD_REACTORS
330
822BC
102
}
330
822BC
100
AcDbScale
 70
     0
300
1:100
140
1.0
141
100.0
290
     0
1001
ACAD
1000
AcRTDxfName
1000
SCALE
1000
AcRTDxfName
1000
SCALE
  0
SCALE
  5
822C9
102
{ACAD_REACTORS
330
822BC
102
}
330
822BC
100
AcDbScale
 70
     0
300
2:1
140
2.0
141
1.0
290
     0
1001
ACAD
1000
AcRTDxfName
1000
SCALE
1000
AcRTDxfName
1000
SCALE
  0
SCALE
  5
822CA
102
{ACAD_REACTORS
330
822BC
102
}
330
822BC
100
AcDbScale
 70
     0
300
4:1
140
4.0
141
1.0
290
     0
1001
ACAD
1000
AcRTDxfName
1000
SCALE
1000
AcRTDxfName
1000
SCALE
  0
SCALE
  5
822CB
102
{ACAD_REACTORS
330
822BC
102
}
330
822BC
100
AcDbScale
 70
     0
300
8:1
140
8.0
141
1.0
290
     0
1001
ACAD
1000
AcRTDxfName
1000
SCALE
1000
AcRTDxfName
1000
SCALE
  0
SCALE
  5
822CC
102
{ACAD_REACTORS
330
822BC
102
}
330
822BC
100
AcDbScale
 70
     0
300
10:1
140
10.0
141
1.0
290
     0
1001
ACAD
1000
AcRTDxfName
1000
SCALE
1000
AcRTDxfName
1000
SCALE
  0
SCALE
  5
822CD
102
{ACAD_REACTORS
330
822BC
102
}
330
822BC
100
AcDbScale
 70
     0
300
100:1
140
100.0
141
1.0
290
     0
1001
ACAD
1000
AcRTDxfName
1000
SCALE
1000
AcRTDxfName
1000
SCALE
  0
SCALE
  5
822CE
102
{ACAD_REACTORS
330
822BC
102
}
330
822BC
100
AcDbScale
 70
     0
300
1/128" = 1'-0"
140
0.0078125
141
12.0
290
     0
1001
ACAD
1000
AcRTDxfName
1000
SCALE
1000
AcRTDxfName
1000
SCALE
  0
SCALE
  5
822CF
102
{ACAD_REACTORS
330
822BC
102
}
330
822BC
100
AcDbScale
 70
     0
300
1/64" = 1'-0"
140
0.015625
141
12.0
290
     0
1001
ACAD
1000
AcRTDxfName
1000
SCALE
1000
AcRTDxfName
1000
SCALE
  0
SCALE
  5
822D0
102
{ACAD_REACTORS
330
822BC
102
}
330
822BC
100
AcDbScale
 70
     0
300
1/32" = 1'-0"
140
0.03125
141
12.0
290
     0
1001
ACAD
1000
AcRTDxfName
1000
SCALE
1000
AcRTDxfName
1000
SCALE
  0
SCALE
  5
822D1
102
{ACAD_REACTORS
330
822BC
102
}
330
822BC
100
AcDbScale
 70
     0
300
1/16" = 1'-0"
140
0.0625
141
12.0
290
     0
1001
ACAD
1000
AcRTDxfName
1000
SCALE
1000
AcRTDxfName
1000
SCALE
  0
SCALE
  5
822D2
102
{ACAD_REACTORS
330
822BC
102
}
330
822BC
100
AcDbScale
 70
     0
300
3/32" = 1'-0"
140
0.09375
141
12.0
290
     0
1001
ACAD
1000
AcRTDxfName
1000
SCALE
1000
AcRTDxfName
1000
SCALE
  0
SCALE
  5
822D3
102
{ACAD_REACTORS
330
822BC
102
}
330
822BC
100
AcDbScale
 70
     0
300
1/8" = 1'-0"
140
0.125
141
12.0
290
     0
1001
ACAD
1000
AcRTDxfName
1000
SCALE
1000
AcRTDxfName
1000
SCALE
  0
SCALE
  5
822D4
102
{ACAD_REACTORS
330
822BC
102
}
330
822BC
100
AcDbScale
 70
     0
300
3/16" = 1'-0"
140
0.1875
141
12.0
290
     0
1001
ACAD
1000
AcRTDxfName
1000
SCALE
1000
AcRTDxfName
1000
SCALE
  0
SCALE
  5
822D5
102
{ACAD_REACTORS
330
822BC
102
}
330
822BC
100
AcDbScale
 70
     0
300
1/4" = 1'-0"
140
0.25
141
12.0
290
     0
1001
ACAD
1000
AcRTDxfName
1000
SCALE
1000
AcRTDxfName
1000
SCALE
  0
SCALE
  5
822D6
102
{ACAD_REACTORS
330
822BC
102
}
330
822BC
100
AcDbScale
 70
     0
300
3/8" = 1'-0"
140
0.375
141
12.0
290
     0
1001
ACAD
1000
AcRTDxfName
1000
SCALE
1000
AcRTDxfName
1000
SCALE
  0
SCALE
  5
822D7
102
{ACAD_REACTORS
330
822BC
102
}
330
822BC
100
AcDbScale
 70
     0
300
1/2" = 1'-0"
140
0.5
141
12.0
290
     0
1001
ACAD
1000
AcRTDxfName
1000
SCALE
1000
AcRTDxfName
1000
SCALE
  0
SCALE
  5
822D8
102
{ACAD_REACTORS
330
822BC
102
}
330
822BC
100
AcDbScale
 70
     0
300
3/4" = 1'-0"
140
0.75
141
12.0
290
     0
1001
ACAD
1000
AcRTDxfName
1000
SCALE
1000
AcRTDxfName
1000
SCALE
  0
SCALE
  5
822D9
102
{ACAD_REACTORS
330
822BC
102
}
330
822BC
100
AcDbScale
 70
     0
300
1" = 1'-0"
140
1.0
141
12.0
290
     0
1001
ACAD
1000
AcRTDxfName
1000
SCALE
1000
AcRTDxfName
1000
SCALE
  0
SCALE
  5
822DA
102
{ACAD_REACTORS
330
822BC
102
}
330
822BC
100
AcDbScale
 70
     0
300
1-1/2" = 1'-0"
140
1.5
141
12.0
290
     0
1001
ACAD
1000
AcRTDxfName
1000
SCALE
1000
AcRTDxfName
1000
SCALE
  0
SCALE
  5
822DB
102
{ACAD_REACTORS
330
822BC
102
}
330
822BC
100
AcDbScale
 70
     0
300
3" = 1'-0"
140
3.0
141
12.0
290
     0
1001
ACAD
1000
AcRTDxfName
1000
SCALE
1000
AcRTDxfName
1000
SCALE
  0
SCALE
  5
822DC
102
{ACAD_REACTORS
330
822BC
102
}
330
822BC
100
AcDbScale
 70
     0
300
6" = 1'-0"
140
6.0
141
12.0
290
     0
1001
ACAD
1000
AcRTDxfName
1000
SCALE
1000
AcRTDxfName
1000
SCALE
  0
SCALE
  5
822DD
102
{ACAD_REACTORS
330
822BC
102
}
330
822BC
100
AcDbScale
 70
     0
300
1'-0" = 1'-0"
140
12.0
141
12.0
290
     0
1001
ACAD
1000
AcRTDxfName
1000
SCALE
1000
AcRTDxfName
1000
SCALE
  0
DICTIONARYVAR
  5
8DF
102
{ACAD_REACTORS
330
8DE
102
}
330
8DE
100
DictionaryVariables
280
     0
  1
1
  0
DICTIONARYVAR
  5
829AB
102
{ACAD_REACTORS
330
8DE
102
}
330
8DE
100
DictionaryVariables
280
     0
  1
0
  0
DICTIONARYVAR
  5
8E0
102
{ACAD_REACTORS
330
8DE
102
}
330
8DE
100
DictionaryVariables
280
     0
  1

  0
DICTIONARYVAR
  5
829AA
102
{ACAD_REACTORS
330
8DE
102
}
330
8DE
100
DictionaryVariables
280
     0
  1
127
  0
ENDSEC
  0
EOF
